Kakariko Village (Legend of Zelda: A Link to the Past) Guitar Tab

Submitted: Oct 25, 2009 by archard (Last updated: Oct 25, 2009)

4.76923
Average: 4.8 (13 votes)
Download | Listen
Game: Legend of Zelda: A Link to the Past
Composer(s): Koji Kondo
Style: Arrangement, Fingerstyle
Series: Legend of Zelda

AutoScroll: Slow | Medium | Fast
Kakariko Village
Legend of Zelda: A Link to the Past
Composed by Koji Kondo
Arranged by 

With a little help from Kabukibear and TrangOul.

Tune your 6th string down to Eb. Play slowly and gently.
This is my submission to the SNES fingerstyle project.



      E  E  E  E  E  E     E  E  E  E  E  E     E  E  E  E  E  E   
E ||--------------------|--------------------|--------------------|
B ||--3--------3--------|--3--------3--------|--6--------6--------|
G ||--------3-----3-----|--------0-----0-----|--------3-----3-----|
D ||-----3-----------3--|-----0-----------0--|-----5-----------5--|
A ||--1-----------------|--------------------|--3-----------------|
D#||--------------------|--4-----------------|--------------------|


  E  E  E  E  E  E     E  E  E  E  E  E     E  E  E  E  E  E   
--L-----------------|--------------------|--------------------|
--------------------|--3--------3--------|--3--------3--------|
-----------2--------|--------3-----3-----|--------0-----0-----|
--------3-----3-----|-----3-----------3--|-----0-----------0--|
-----3-----------3--|--1-----------------|--------------------|
--2-----------------|--------------------|--4-----------------|


  E  E  E  E  E  E     E  E  E  E  E  E     E  E  E  E  E  E   
--------------------|--------------1-----|--3-----------------|
--6--------6--------|--------------------|--------------------|
--------3-----3-----|-----------2--------|--------3-----3-----|
-----5-----------5--|--------3-----3-----|--------------------|
--3-----------------|-----3-----------3--|-----1-----1-----1--|
--------------------|--2-----------------|--0-----------------|


  E  E  E  E  E  E     E  E  E  E  E  E     E  E  E  E  E  E   
--------------3-----|--1-----------------|--------------------|
--------------------|--------------------|--3-----------------|
--2-----------------|--------3-----3-----|--------0-----0-----|
--------3-----3-----|-----3-----3-----3--|-----0-----0-----0--|
-----3-----3-----3--|--1-----------------|--------------------|
--2-----------------|--------------------|--4-----------------|


                                        1st ending--------------
  E  E  E  E  E  E     E  E  E  E  Q       E  E  E  E  E  E     
--------------------|-------------------|---------------------||
--3-----------------|--3-----------1----|-----------3--1------||
--------3-----3-----|--------0-----0----|--------3--------3--*||
-----5-----5-----5--|-----3-----3-------|-----3--------------*||
--3-----------------|-------------------|--1------------------||
--------------------|--2----------------|---------------------||


2nd ending------
  ^                                                                             
  H        Q       E  E  E  E  E  E     E  E  E  E  E  E     E  E  E  E  E  E   
--1--------6----|--6-----------------|--5-----------8-----|--6-----------------|
--3-------------|--------4-----4-----|--------6-----------|--------3-----3-----|
--3-------------|-----3-----3-----3--|-----3-----3-----8--|-----3-----3-----3--|
----------------|--------------------|--------------------|--0-----------------|
--1-------------|--------------------|--------------------|--------------------|
----------------|--0-----------------|--0-----------------|--------------------|


  E  E  E  E  E  E     E  E  E  E  E  E     E  E  E  E  E  E   
--1-----------1-----|--------------------|--------------------|
--------3-----3-----|--4-----------3-----|--4-----------6-----|
-----3-----3-----3--|--------5-----5-----|--------2-----------|
--0-----------------|-----5-----5-----5--|-----3-----3-----3--|
--------------------|--3-----------------|--------------------|
--------------------|--------------------|--2-----------------|


  E  E  E  E  E  E     E  E  E  E  E  E     E  E  E  E  E  E   
--------------------|--------------------|--------------------|
--3-----------------|--L-----------3--1--|--------------------|
--------3-----3-----|--------3-----------|--3-----------------|
-----3-----3-----3--|-----3-----3--------|--------1-----1-----|
--1-----------------|--0-----------------|-----1-----1-----1--|
--------------------|--------------------|--0-----------------|


  E  E  E  E  E  E     E  E  E  E  E  E     E  E  E  E  E  E   
--------------------|--------------------|--------------------|
--------------1-----|--------------------|--6-----------------|
--2-----------------|--3-----------------|--------3-----3-----|
--------3-----3-----|--------3-----3-----|-----3-----3-----3--|
-----1-----1-----1--|-----5-----5-----5--|--5-----------------|
--2-----------------|--4-----------------|--------------------|


                                            ^                              
  E  E  E  E  E  E     E  E  E  E  E  E     H.              H.             
--------------------|-----------1--------|--1------------|--L------------||
--4-----------------|--3-----------4--3--|--3------------|--L------------||
--------5-----5-----|--------2-----------|--2------------|--L------------||
-----5-----5-----5--|-----0--------------|---------------|--L------------||
--3-----------------|--------------------|--1------------|--L------------||
--------------------|--2-----------------|---------------|---------------||




Duration Legend
---------------
W - whole
H - half
Q - quarter
E - 8th
S - 16th
. - note dotted


Tablature Legend
----------------
L - tied note
Login or Register to remove this ad.

6 comments on Kakariko Village

Ah, this seems like a tab

Ah, this seems like a tab that would really help put yourself at ease after a hard day's work. <3

^^

5

good job there archard. :D i love it. :D got my 5. :D

Excellent!

5

This is incredible. Great work! Anyone who doesn't give this 5 stars is insane.

Which fingers to use...

4

Sounds great :D

Not too sure about the fingering for this bar though (the 7th last one):

E E E E E E
--------------------|
--------------1-----|
--2-----------------|
--------3-----3-----|
-----1-----1-----1--|
--2-----------------|

What would be the best way to play that?

hi

archard I could not reach you, I want my tab to be corrected, can you help?

New forums are probably a

New forums are probably a better way to reach Archard or one of the site moderators, link is on the main page near the top.