Ads

City of Flickering Destruction (Legend of Mana) Guitar Tab

Submitted: May 09, 2010 by diralark

3.714285
Average: 3.7 (7 votes)
Download | Listen
Game: Legend of Mana
Composer(s): Yoko Shimomura
Style: Fingerstyle, Transcription
Series: Mana

AutoScroll: Slow | Medium | Fast

City of Flickering Destruction (from Legend of Mana)

Music by Yoko Shimomura >> Sequenced by Zagro >> tab by Diralark

Guitar (Capo 3), Tempo 62 , let ring

                        ^        ^                 ^     ^      
                                    |3|  |-3| |3|               
      E  E  E  E  E  E  E  E     E  S E  E  S S E  E  E  E  E   
E||---------------------------|-------0------------------------|
B||---------------------0--1--|--3----------1---0--1-----0--1--|
G||*-----------0--2--------2--|----------0---------------2-----|
D||*--------4-----------3-----|-----0---------0-------2-----2--|
A||---2--2-----2-----3--------|--------------------0-----------|
E||---0-----------1-----------|--3-----------------------------|


  ^                 ^                                            
     |3|  |-3| |3|                                               
  E  S E  E  S S E  E  E  E  E     E  E  E  S T  T  E  E  E  E   
-------0------------------------|-------------------------------|
--3----------1---0-----------3--|-------------------------------|
--------------------2-----0-----|--0----------------------------|
----------3------------0--------|--0-----3----2h-3p-2-----------|
-----3---------3----------------|-----0-----0-------------3-----|
--1-----------------3-----------|----------------------3-----3--|


  ^     ^                                             
  E  E  E  E  E  E  E  E     E  E  E  E  E  E  E  E   
--------------------------|--------------------------|
--3-----1--0--------------|--------0--1--0-----------|
--------------2-----0-----|-----2-----------2--0-----|
--------3--------0-----0--|--------0-----------2--4--|
-----3-----3--------------|--0--0-----0-----2-----2--|
--1-----------3-----------|--------------0-----------|


                       ^     ^                       ^      
                                |3|  |-3| |3|               
  E  E  E  E  E  E  E  E     E  S E  E  S S E  E  E  E  E   
--------------------------|-------0------------------------|
--------------------0--1--|--3----------1---0--1-----0--1--|
-----------0--2--------2--|----------0---------------2-----|
--------4-----------3-----|-----0---------0-------2-----2--|
--2--2-----2-----3--------|--------------------0-----------|
--0-----------1-----------|--3-----------------------------|


  ^                 ^                                           
     |3|  |-3| |3|                                              
  E  S E  E  S S E  E  E  E  E     E  E  E  S T  T E  E  E  E   
-------0------------------------|------------------------------|
--3----------1---0-----------3--|------------------------------|
--------------------2-----0-----|--0---------------------------|
----------3------------0--------|--------3----2h-3-2-----------|
-----3---------3----------------|-----0-----0------------3-----|
--1-----------------3-----------|---------------------3-----3--|


                                         ^            
  E  E  E  E  E  E  E  E     E  E  E  E  E  E  E  E   
--------------------------|--0--------1--0-----------|
-----------0--1--------3--|--------------------0-----|
--2-----------------0-----|--------------------------|
--0-----3--------0-----0--|--L--0--2-----------2-----|
-----3--3--2--0-----------|--0--0-----0-----2-----2--|
--1-----------3-----------|--------------0-----------|


                             ^                       ^      
                                |3|  |-3| |3|               
  E  E  E  E  E  E  E  E     E  S E  E  S S E  E  E  E  E   
-----------------------0--|--1----3-----0------0--------0--|
-----------0--1-----3-----|-----------------3--------3-----|
--2--------------------2--|----------0---------------2-----|
--------2-----------3-----|-----0---------0-------2-----2--|
-----2-----2-----3--------|--------------------0-----------|
--0-----------1-----------|--3-----------------------------|


  ^                 ^                                       
     |3|  |-3| |3|                                          
  E  S E  E  S S E  E  E  E  E     E  E  E  E  E  E  E  E   
--1----3-----0------------------|--------------------------|
-----------------3--1-----0--3--|--------------------------|
--------------------------0-----|--------2--------------0--|
----------3------------0--------|--0-----------------2-----|
-----3---------3----------------|-----0-----0-----2--------|
--1-----------------3-----------|--------------0-----------|


  ^             ^                 ^             ^               
  E  S S E  S S E  S S S S S S    E  S S E  S S E  S S S S S S  
--5--5-7-5--5-7-5--5-7-5-7-5-7-|--5--5-7-5--5-7-5--5-7-5-7-5-7-|
--5--5---5--5---6--5---6---5---|-----5------5------5-------5---|
--7------5-------------5-------|--7------5-------------5-------|
-------------------------------|--5------5------7------7-------|
-------------------------------|-------------------------------|
-------------------------------|-------------------------------|


  ^             ^                 ^             ^               
  E  S S E  S S E  S S S S S S    E  S S E  S S E  S S S S S S  
--5--5-7-5--5-7-5--5-7-5-7-5-7-|--5--5-7-5--5-7-5--5-7-5-7-5-7-|
--6--5---6--5------5-------5---|-----5------5---5--5---5---5---|
--7------5-------------5-------|---------5-------------5-------|
----------------5------5-------|-------------------------------|
-------------------------------|--5----------------------------|
-------------------------------|---------5---------------------|


  ^             ^                 ^             ^               
  E  S S E  S S E  S S S S S S    E  S S E  S S E  S S S S S S  
--5--5-7-5--5-7-5--5-7-5-7-5-7-|--5--5-7-5--5-7-5--5-7-5-7-5-7-|
--5--5---5--5---6--5---6---5---|-----5------5------5-------5---|
--7------5-------------5-------|--7------5-------------5-------|
-------------------------------|--5------5------7------7-------|
-------------------------------|-------------------------------|
-------------------------------|-------------------------------|

                               |1st ending
  ^             ^      ^          ^             ^          
  E  S S E  S S E  S S S S S S    E  S S E  S S Q    Q     
--5--5-7-5--5-7-5--5-7-5-7-5-7-|--5--5-7-5--5-7-5----7----|
--6--5---6--5------5-------5---|-----5------5--------5----|
--7------5-------------5-------|---------5------5----5----|
----------------5------5-------|----------------7---------|
-------------------------------|--5------5------7----7----|
-------------------------------|--------------------------|


     VII                        X                    --]   VII        
  ^      ^                      ^                              ^      
                                    |--|   |-3-|  |--|                
  E  E   E  E   E  E  E  E      E   S  E   E   S  S  E  E  E   E  E   
----------------------7--8--|--10-----12----------------8------7--8--|
---------7--8--10-----------|-----------------13----12---------------|
----------------------------|----------------------------------------|
--9-------------------9--7--|----------------------------------7-----|
---------9------8-----8-----|--10---------10------------0--7------7--|
--0--7------7------8--------|------10------------10------------------|


   VIII           --]                                                 
   ^                     ^                    ^                       
       |--|  |-3| |-3-|                                               
   E   S  E  E  S S   E  E  E  E  E     E  E  E  S T  T  E  E  E  E   
--10-----12-----8-----7--5-----3-----|--3-----1----0h-1p-0-----------|
----------------------------------3--|-------------------------------|
-------------------------------0-----|-------------------------------|
----------------------------0--------|--------0----------------------|
---8---------8-----------------------|-----0-----0-------------3-----|
-------8----------8------3-----------|----------------------3-----3--|


   VIII                             VII                           
   ^                      ^                    ^                  
   E   E  E   E   E   E   E   E     E    E  E  E  E   E  E  E     
--10------8----------------------|----------7--8--7-------------||
-------------12--10--------------|------10-----------10--8--7---||
-------------------------12------|----------7------------------*||
---------------------------------|-------7-----7---------------*||
---8------8------10------10------|----------------7------7------||
-------8------8------10------10--|--L-----------------7-----7---||

|2nd ending                 Da capo
  ^             ^                                                     
  E  S S E  S S E  E  E  E     W                   W                  
--5--5-7-5--5-7-5-----7--L--|-------------------|-------------------||
-----5------5---------5--L--|-------------------|-------------------||
--7------5------5-----5--L--|--5----------------|--L----------------||
----------------7-----------|--7----------------|--L----------------||
---------5------------7-----|--7----------------|--L----------------||
----------------0--7-----0--|--5----------------|--L----------------||


Duration Legend
---------------
W - whole
H - half
Q - quarter
E - 8th
S - 16th
. - note dotted
|-n-| - n-tuplets

Tablature Legend
----------------
L - tied note
h - hammer on
p - pull off
b - bend
^ - brush up

Login or Register to remove this ad.

3 comments on City of Flickering Destruction

a bit hard

5

it a bit hard to play but with some practise it's awesome! took me a while to get the rhythm though..

beautiful

5

i love this song, i remember i tried this a while ago and couldn't get it all in tempo - you did a great job on this arrangement.

thanks guys :)

thanks guys :)