A Beautiful Woman's House (Legend of the Mystical Ninja) Guitar Tab

Submitted: Sep 22, 2010 by TKStriker

3
Average: 3 (1 vote)
Download | Listen
Game: Legend of the Mystical Ninja
Composer(s): Kazuhiko Uehara, Harumi Ueko
Style: Transcription
Series: Goemon

Click here for a video example.

AutoScroll: Slow | Medium | Fast
Legend of the Mystical Ninja - A Beautiful Woman's House

Here's another one from The Legend of the Mystical Ninja. This one is mostly around
the 7th fret with the exception of a jump to the 12th and 13th fret. Check out my video
if you need the timing on this one. Enjoy.

e--------------------------------------------------------------------------8--------
B--------8-10-----------------------------10-8-8-8-------8-10---------8-10---10-8---
G-10--10-----------7----10--10-7----7---7-----------7-10------7--7-10---------------
D---------------10---10----------10-------------------------------------------------
A-----------------------------------------------------------------------------------
E-----------------------------------------------------------------------------------

e-----------------8-10-13-12-10----------8----------------------8-10-8--------------
B------------8-10---------------10-8-10----10-8-10------10-8-10--------10-8---------
G----7-10-10---------------------------------------7--7---------------------10-7-10-
D-10--------------------------------------------------------------------------------
A-----------------------------------------------------------------------------------
E-----------------------------------------------------------------------------------
Login or Register to remove this ad.