Sorrowful Song (Legend of Mana) Guitar Tab

Submitted: Jun 23, 2013 by Aleqh (Last updated: Jun 25, 2013)

5
Average: 5 (1 vote)
Download | Listen
Game: Legend of Mana
Composer(s): Yoko Shimomura
Style: Arrangement, Fingerstyle, Natural harmonics
Series: Mana

This song is also called 悲しい曲

Click here for a video example.

AutoScroll: Slow | Medium | Fast
Title: Legend of Mana
SubTitle: Sorrowful Song
Music: Yoko Shimomura, Arranged by Aleqh / Asch.
Tempo = 109
Guitar

Legend
L - tied note
x - dead note
h - hammer on/pull off
b - bend
s - slide
~ - vibrato
g - ghost note
> - accentuated note
t - trill
M - palm mute
. - staccato
P - popping (bass)
S - slapping (bass)
+ - tapping
W - wide vibrato
< - fade in
w - whammy bar
= - tremolo picking
v - brush up
^ - brush down
V - pick stroke up
n - pick stroke down


E |-------------------------------|--------------0--1-------------|
B |--1-----------0--1-------------|--3----------------------------|
G |-----------2-----------2-------|-----------------------1-------|
D |-----------------------2-------|-----------------------2-------|
A |--------------------0----------|-------------------------------|
E |-------------------------------|--------------------4----------|


--0----------------------------|----------------|
-----------3--1----------------|--3-------------|
-----------------------0-------|----------------|
-----------------------2-------|--------4-------|
-------------------------------|--------5-------|
--------------------3----------|-----3----------|


-----------------0-------------|----------------------|
--1-----------3----------------|--0-------------------|
-------------------------------|--------0-----0-------|
-----------------------3-------|--------------2-------|
-----------------------3-------|----------------------|
--------------------1----------|-----------3----------|


-----------0-------------------|----------------|
--------3-----3--1-------------|--0-------------|
-------------------------------|--------0-------|
-----------------------3-------|--------2-------|
-----------------------3-------|----------------|
--------------------1----------|-----3----------|


-------------------------------|--------------0--1-------------|
--1-----------0--1-------------|--3----------------------------|
-----------2-----------2-------|-----------------------1-------|
-----------------------2-------|-----------------------2-------|
--------------------0----------|-------------------------------|
-------------------------------|--------------------4----------|


--0--------5--0----------------|--0----------------------------|
-----------------3-------------|-----3-----0-------------------|
-----------------------0-------|--------5-----2----------------|
-----------------------2-------|-----------------------4-------|
-------------------------------|-----------------------5-------|
--------------------3----------|--------------------2----------|


-----------------0-------------|----------------------|----------------------|
--1-----------3----------------|--0-------------------|----------------------|
-------------------------------|--------0-----0-------|--2-----------2-------|
-----------------------3-------|--------------2-------|--------------2-------|
-----------------------3-------|----------------------|-----------0----------|
--------------------1----------|-----------3----------|----------------------|


-----12L-----|--12---||
-------------|-------||
-------------|-------||
-------------|-------||
--12---------|-------||
-------------|-------||


This is a re-upload.

Aside of the tablature, I fixed the score for those who prefer sight-reading.

Enjoy.
Login or Register to remove this ad.

1 comment on Sorrowful Song

My mistake.

My bad. It was not very clear that the tabs should be copy/pasted into the textfield.
I have the .txt ASCII format in the zip file, and I can't edit what I've already posted.

Same goes for my other tab:
http://www.gametabs.net/hometown-domina

I hope someone can fix this.
Thank you.