Cliff Town Gato (Legend of Mana) Guitar Tab

Submitted: Dec 29, 2011 by Ranulf

4
Average: 4 (1 vote)
Download | Listen
Game: Legend of Mana
Composer(s): Yoko Shimomura
Style: Transcription
Series: Mana

AutoScroll: Slow | Medium | Fast
Cliff Town Gato
Legend of Mana
Playstation
Composed Yoko Shimomura
Tabbed by John Adams
12/23/2011


e||---------------------------------------------------------------7--------------|
B||---8-7-8----7-8-10--8-7-8----7-----------8-7-8----7-8-10--8-10----8-10--7-7---|
G||*--------9----------------9-----7-7-9----------9----------------------------9-|
D||*-----------------------------------------------------------------------------|
A||------------------------------------------------------------------------------|
E||------------------------------------------------------------------------------|

---------------------------------------------------------------------------|
---------------------------------------------------------------------------|
--7--7-7-7--7-7-7--7-7-7--5-7---5-7----7--7-7-7--7-7-7--7-7-7-7--5-7---5---|
-------------------------------------------------------------------------7-|
---------------------------------------------------------------------------|
---------------------------------------------------------------------------|

-----------------------------------------------------------------------------------6-8-10-|
--8-8-8-6-6-6----------6-6-6-----------------------------6-6-6--------9-9-9-8-8-8---------|
--------------8-8-7----------8-8-8-7-7-5----8-8-8-7-7-7--------8-8-8----------------------|
------------------------------------------------------------------------------------------|
------------------------------------------------------------------------------------------|
------------------------------------------------------------------------------------------|

----------------------------------------------------------------------10--------------------------|
--11-10-11-----10-11-13--11-10-11-----10--------------10-11-13--11-13----13-11-13-11-10-----------|
-----------12---------------------12------10-10-12---------------------------------------12----10-|
--------------------------------------------------------------------------------------------------|
--------------------------------------------------------------------------------------------------|
--------------------------------------------------------------------------------------------------|

-------------------------------------------------------------------------------------------------------|
--11-10-11-----10-11-13--11-10-11-----10--------------11-10-11-----10-11-13--11-10-11-----10-----------|
-----------12---------------------12------10-10-12-------------12---------------------12------10-10-12-|
-------------------------------------------------------------------------------------------------------|
-------------------------------------------------------------------------------------------------------|
-------------------------------------------------------------------------------------------------------|

-------------------------------10------------------|
--11-10-11-----10-11-13--11-13-----11-13--10-10----|
-----------12-----------------------------------12-|
---------------------------------------------------|
---------------------------------------------------|
---------------------------------------------------|

-----------------------------------------------------|
-----------------------------------------------------|
--7--7-7-7--7-7-7--7-7-7-5---------------------------|
----------------------------9--9-9-9--9-9-9--9-9-9-7-|
-----------------------------------------------------|
-----------------------------------------------------|

--------------------------------------------------------------7---------------||
--8-7-8----7-8-10--8-7-8----7-----------8-7-8----7-8-10--8-10----8-10--7-7----||
--------9----------------9-----7-7-9----------9----------------------------9-*||
-----------------------------------------------------------------------------*||
------------------------------------------------------------------------------||
------------------------------------------------------------------------------||
Login or Register to remove this ad.