Ads

Silver Will (The Legend of Heroes: Trails in the Sky) Bass Tab

Submitted: Apr 16, 2015 by Basisti94

0
Download | Listen
Game: The Legend of Heroes: Trails in the Sky
Composer(s): Hayato Sonoda, Wataru Ishibashi, Takahide Murayama
Style: Transcription

This song is also called 銀の意志

AutoScroll: Slow | Medium | Fast
                        Silver Will
                                
The Legend of Heroes: Trails in the Sky
Hayato Sonoda, Wataru Ishibashi, Takahide Murayama (Falcom Sound Team JDK)
Bass tab by Basisti94 (Miro Laaksonen)
22.3.2015



Tempo ~ 142

     W                   W                     E.  S E  E  E.  S E  E   
G||-------------------|-------------------||---------------------------|
D||-------------------|-------------------||*--------4--6--------4--6--|
A||--4----------------|--L----------------||*--4---4-------4---4-------|
E||-------------------|-------------------||---------------------------|


  E.  S E  E  E.  S E  E     E.  S E  E  E.  S E  E   
--------------------------|--------------------------|
--------4--6--------4--6--|--------1--2--------1--2--|
--4---4-------4---4-------|--0---0-------0---0-------|
--------------------------|--------------------------|


  E.  S E  E  E.  S E  E     E.  S E  E  E.  S E  E   
--------------------------|--------------------------|
--------1--2--------1--2--|--------4--6--------4--6--|
--0---0-------0---0-------|--4---4-------4---4-------|
--------------------------|--------------------------|


  E.  S E  E  E.  S E  E     E.  S E  E  E.  S E  E   
--------------------------|--------------------------|
--------4--6--------4--6--|--------1--2--------1--2--|
--4---4-------4---4-------|--0---0-------0---0-------|
--------------------------|--------------------------|


  E.  S E  E  E.  S S S S S    E.  S E  E  E.  S E  E   
--------------------8-8-9-9-|--------------------------|
--------1--2----------------|--------4--6--------4--6--|
--0---0-------0---0---------|--4---4-------4---4-------|
----------------------------|--------------------------|


  E.  S E  E  E.  S E  E     E.  S E  E  E.  S E  E   
--------------------------|--------------------------|
--------4--6--------4--6--|--------1--2--------1--2--|
--4---4-------4---4-------|--0---0-------0---0-------|
--------------------------|--------------------------|


  E.  S E  E  E.  S E  E     E.  S E  E  E.  S E  E   
--------------------------|--------------------------|
--------1--2--------1--2--|--------------------------|
--0---0-------0---0-------|--------6-----------6-----|
--------------------------|--4---4----4--4---4----4--|


  E.  S E  E  E.  S E  E     E.  S E  E  E.  S E  E   
--------------------------|--------------------------|
--------------------------|--------4--6--------4--6--|
--------6--7--------4--7--|--4---4-------4---4-------|
--5---5-------4---4-------|--------------------------|


  E.  S E  E  E  E  E   E     E.  S E  E  E.  S E  E   
-----------------------11--|--------------------------|
-----------4--------9------|--------4--6--------4--6--|
--------4--------4---------|--4---4-------4---4-------|
--2---2-------2------------|--------------------------|


  E.  S E  E  E.  S E  E     E.  S E  E  E.  S E  E   
--------------------------|--------------------------|
--------4--6--------4--6--|--------1--2--------1--2--|
--4---4-------4---4-------|--0---0-------0---0-------|
--------------------------|--------------------------|


  E.  S E  E  E.  S E  E     E.  S E  E  E.  S E  E   
--------------------------|--------------------------|
--------1--2--------1--2--|--------------------------|
--0---0-------0---0-------|--------6-----------6-----|
--------------------------|--4---4----4--4---4----4--|


  E.  S E  E  E.  S E  E     E.  S E  E  E.  S E  E   
--------------------------|--------------------------|
--------------------------|--------4--6--------4--6--|
--------6--7--------4--7--|--4---4-------4---4-------|
--5---5-------4---4-------|--------------------------|


  E.  S E  E  E.  S E  E     E.  E.  S S Q.     E     E.  E.  S S E  E  E  E   
--------------------------|----------9-------------|----------6------6--------|
--------4--6--------4--6--|------------------------|--------------------6--2--|
--4---4-------4---4-------|--7---7-----7-----------|--4---4-----4-------------|
--------------------------|---------------------0--|--------------------------|


  E.  E.  S S Q.     E     E.  E.  S S E  E  E  E     E.  E.  S S Q.     E   
----------4-------------|----------6------4--1-----|------------------------|
------------------------|------4-----4-------------|----------3-------------|
--2---2-----2-----------|--4-----------2--------2--|--1---1-----1--------1--|
---------------------4--|--------------------------|------------------------|


  E.  E.  S S E  E  E  E     E.  E.  E  E.  E.  E     E.  E.  S S H         
----------8------8--------|------------------------|------------8----------|
--------------------8-----|--6--------------6------|----------8------------|
--6---6-----6----------6--|------6------6----------|------8----------------|
--------------------------|----------4----------4--|--6--------------------|


  E.  E.   E.  E.  E  E     E.  E.  E  E.  E.  E     E.  E.  E.  E.  E  E   
----------10---8---------|----------8------8---6--|----------6---4---------|
------8------------8-----|------8-----------------|------4-----------4-----|
--6-------------------8--|--6----------6----------|--2------------------4--|
-------------------------|------------------------|------------------------|


  E.  E.  E  E.  E.  E     E.  E.  E.  E.  Q       E.  E.  E  E.  E.  E   
----------4------4------|----------6------------|----------6------6------|
------4--------------4--|------6-------6--------|------6--------------6--|
--2----------2----------|--4---------------4----|-------------4----------|
------------------------|-----------------------|--4---------------------|


  E.  E.   E.  E.  E  E     E.  E  S Q    E  E  E     E.  E.   E.  E.  E  E   
----------10---8---------|-------------------------|----------10---8---------|
------8------------8-----|------8---------------8--|------8------------8-----|
--6-------------------6--|---------8------5--8-----|--6-------------------8--|
-------------------------|--6--------6-------------|-------------------------|


  E.  E.  E  E.  E.  E     E.  E.  E.  E.  E  E     E.  E.  E  E.  E.  E   
----------8------8---6--|----------6---4---------|----------4------4------|
------8-----------------|------4-----------4-----|------4--------------4--|
--6----------6----------|--2------------------4--|--2----------2----------|
------------------------|------------------------|------------------------|


  E.  E.  E.  E.  Q       E.  E.  E  E.  E.  E     E.  E.   E.  E.  E  E   
----------6------------|----------6------6------|----------10---8---------|
------6-------6--------|------6--------------6--|------8------------8-----|
--4---------------4----|-------------4----------|--6-------------------6--|
-----------------------|--4---------------------|-------------------------|


  E.  E.   E.  E.  E  E     E.  E.   E.  E.  E  E     E.  E.  E  E.  E.  E   
----------10---8---------|----------10---8---------|----------8------8---6--|
------8------------8-----|------8------------8-----|------8-----------------|
--6-------------------6--|--6-------------------8--|--6----------6----------|
-------------------------|-------------------------|------------------------|


  E.  E.  E.  E.  E  E     E.  E.  E  E.  E.  E     E.  E.  E.  E.  Q     
----------6---4---------|----------4------4------|----------6------------|
------4-----------4-----|------4--------------4--|------6-------6--------|
--2------------------4--|--2----------2----------|--4---------------4----|
------------------------|------------------------|-----------------------|


  E.  E.  E  E.  E.  E     E.  E.   E.  E.  E  E     E.  E  S Q    E  E  E   
----------6------6------|----------10---8---------|-------------------------|
------6--------------6--|------8------------8-----|------8---------------8--|
-------------4----------|--6-------------------6--|---------8------5--8-----|
--4---------------------|-------------------------|--6--------6-------------|


  E.  E.   E.  E.  E  E     E.  E.  E  E.  E.  E     E.  E.  E.  E.  E  E   
----------10---8---------|----------8------8---6--|----------6---4---------|
------8------------8-----|------8-----------------|------4-----------4-----|
--6-------------------8--|--6----------6----------|--2------------------4--|
-------------------------|------------------------|------------------------|


  E.  E.  E  E.  E.  E     E.  E.  E.  E.  Q       E.  E.  E  E.  E.  E   
----------4------4------|----------6------------|----------6------6------|
------4--------------4--|------6-------6--------|------6--------------6--|
--2----------2----------|--4---------------4----|-------------4----------|
------------------------|-----------------------|--4---------------------|


  E.  E.   E.  E.  E  E     E.  E.   E.  E.  E  E     W                 
----------10---8---------|----------10---8---------|-------------------|
------8------------8-----|------8------------8-----|-------------------|
--6-------------------6--|--6-------------------6--|--7----------------|
-------------------------|-------------------------|-------------------|


  W                   
--------------------||
-------------------*||
-------------------*||
--0-----------------||




Duration Legend
---------------
W - whole
H - half
Q - quarter
E - 8th
S - 16th
T - 32nd
X - 64th
. - note dotted
|-n-|  - n-tuplets


Tablature Legend
----------------
L - tied note
x - dead note
g - grace note
(n) - ghost note
> - accentuded note
NH - natural harmonic
AH - artificial harmonic
TH - tapped harmonic
SH - semi harmonic
PH - pitch harmonic
h - hammer on
p - pull off
b - bend
S - shift slide
s - legato slide
/ -  slide into from below or out of upwards
\ -  slide into from above or out of downwards
~ - vibrato
W - wide vibrato
tr - trill
TP - tremolo picking
T - tapping
S - slap
P - pop
< - fade in
^ - brush up
v - brush down
Login or Register to remove this ad.