A Cat Relaxing in the Sun (The Legend of Heroes: Trails in the Sky) Guitar Tab

Submitted: Apr 10, 2011 by hslesperance (Last updated: Aug 10, 2012)

0
Download | Listen
Game: The Legend of Heroes: Trails in the Sky
Composer(s): Hayato Sonoda, Wataru Ishibashi, Takahide Murayama
Style: 2 or more instruments, Alternate picking, Transcription

AutoScroll: Slow | Medium | Fast
A Cat Relaxing in the Sun
The Legend of Heroes: Trails in the Sky
Composed by Falcom Sound Team JDK (Hayato Sonoda, Wataru Ishibashi, Takahide Murayama)
Tabbed by hslesperance
4/10/11

Standard Tuning




Guitar 1

    E E E E E E  E E   Q   +E  E H         E E E E E E +E  E   H      H
||----------5--------|-------------------|-------------------|-----------------|
||o---7-7-8-5-5--7-8-|-7---(7)-5---------|---------5-------5-|-7------5--------|
||----------6--------|-----------7-------|---7-7-7---7-(7)---|-7------6--------|
||-------------------|-------------------|-------------------|-----------------|
||o------------------|-------------------|-------------------|-----------------|
||-------------------|-------------------|-------------------|-----------------|


  E E E E E E  E E   Q   +E  E H         E E E E E E +E  E   H        H
|---------5--------|-------------------|-------------------|----------------||
|---7-7-8-5-5--7-8-|-7---(7)-5---------|---------5-------5-|---------------o||
|---------6--------|-----------7-------|---7-7-7---7-(7)---|-7--------------||
|------------------|-------------------|-------------------|----------------||
|------------------|-------------------|-------------------|---------------o||
|------------------|-------------------|-------------------|----------------||


  Q.     S S Q.     S S   Q.     S S Q.     E
|-7---------------------|-5-------------------|
|-8------8-7-5------7-8-|-7------7-5----------|
|-7----------6----------|------------7--------|
|-----------------------|------------7--------|
|-----------------------|---------------------|
|-----------------------|---------------------|


  Q.     S S Q    Q      H       H
|-7---------------9---|--------------------|
|-8------8-7-5---10---|-10-----------------|
|-7----------6--------|-11-----------------|
|---------------------|--------------------|
|---------------------|--------------------|
|---------------------|--------------------|


  Q.     S S Q.     S S   Q  E E Q  E E
|-7---------------------|-5-------------|
|-8------8-7-5------7-8-|-7--7-5--------|
|-7----------6----------|-7------7--7-6-|
|-----------------------|--------7------|
|-----------------------|---------------|
|-----------------------|---------------|


   Q    Q    E  S S  E E    Q.     E H      Q   Q   H
|------------------------|----------------|--------------|
|------------------------|----------------|-----5---7----|
|------------9-11-9----9-|--9------7-7----|---------7----|
|--9---12---11------12---|-----------7----|--------------|
|-10---------------------|-10--------9----|--------------|
|------------------------|----------------|--------------|


   E  E  E  E  E  E  E  E    E  E  E  E  E  E  E  E
|-14-------14-------14----|----12-------12----------|
|----15-------15-------15-|-------14-------14-------|
|-------14-------14-------|-14-------14-------14----|
|-------------------------|----------------------14-|
|-------------------------|-------------------------|
|-------------------------|-------------------------|


   E  E  E  E  E  E  E  E    E  E  E  E  E  E  E  E
|-------------------------|--------------------------|
|-15-12----15-12----15-12-|----------14--------------|
|-------11-------11-------|-14----------14-------14--|
|-------------------------|----14-11-------14-11-----|
|-------------------------|--------------------------|
|-------------------------|--------------------------|


   E  E  E  E  E  E  E  E    E  E  E  E   E  E  E  E
|-------------------------|--------------------------|
|----------12-------------|--------------------------|
|-12----------12-------12-|-11-------14--11-------11-|
|----12----------12-------|----12-----------12-------|
|-------14----------14----|-------12-----------12----|
|-------------------------|--------------------------|


   E  E  E  E  E  E  E  E    E  E  E  E  E  E  E  E
|-------------------------|-------------------12-----|
|-------------------12----|----------14----------14--|
|----------13----------13-|-14----------14-----------|
|-14----------14----------|----14-11-------14--------|
|----14-11-------14-------|--------------------------|
|-------------------------|--------------------------|


   E  E  E  E  E  E  E  E    E   E  E  E  E  E  E  E
|-14-------14-------14----|-----12-------12----------|
|----15-------15-------15-|--------14-------14-------|
|-------14-------14-------|-14--------14-------14----|
|-------------------------|-----------------------14-|
|-------------------------|--------------------------|
|-------------------------|--------------------------|


   E  E  E  E  E  E  E  E    E  E  E  E  E  E  E  E
|-------------------------|--------------------------|
|-15-12----15-12----15-12-|----------14--------------|
|-------11-------11-------|-14-11-------14-11----14--|
|-------------------------|-------11----------11-----|
|-------------------------|--------------------------|
|-------------------------|--------------------------|


   E   E  E  E  E  E  E  E    E  E  E  E   E  E  E  E
|--------------------------|--------------------------|
|-----------12-------------|--------------------------|
|-12-----------12-------12-|-11-------14--11-------11-|
|-----12----------12-------|----12-----------12-------|
|--------14----------14----|-------12-----------12----|
|--------------------------|--------------------------|


   E  E  E  E  E   E      E  E    E  E  E  E  E  E  E  E     H.           Q
|------------------------------|-------------------------|--------------------|
|------------------------12----|----------14-------------|--------------------|
|----------13---------------13-|-14----------14----------|-^12----------------|
|-14----------14---------------|----14-11-------14-11-14-|-^11----------------|
|----14-11--------14-----------|-------------------------|-^12----------------|
|------------------------------|-------------------------|--------------------|


   E  E E E E E  E E   Q   +E  E H           E E E E E E +E  E   H      H
|-----------5--------|-------------------|-------------------|-----------------*|
|-----7-7-8-5-5--7-8-|-7---(7)-5---------|---------5-------5-|-7------5--------*|
|-----------6--------|-----------7-------|---7-7-7---7-(7)---|-7------6--------*|
|--------------------|-------------------|-------------------|-----------------*|
|--------------------|-------------------|-------------------|-----------------*|
|--------------------|-------------------|-------------------|-----------------*|




Guitar 2

    E E Q   E Q.       E E  E  E E E E E   E E Q   E E  Q      E E Q  E E E E
||-------------------|-------------------|-------------------|-----------------|
||o-----3------------|-------------------|-------------------|-----3--------2--|
||----2-------2------|------4--------0---|-----0--------2----|---2--------2----|
||--0----------------|---4---------0---0-|---0-------2-------|-0--------2------|
||o---------4--------|-2-------0---------|---------0---------|--------4--------|
||-------------------|-----------3-------|-3-----------------|-----------------|


  E E Q   E Q.       E E  E  E E E E E   E E Q   E E  Q      E E E E  H
|------------------|-------------------|-------------------|-----3---^2-----||
|-----3------------|-------------------|-------------------|---------^3----o||
|---2-------2------|------4--------0---|-----0--------2----|---2---2-^2-----||
|-0----------------|---4---------0---0-|---0-------2-------|-0-------^0-----||
|---------4--------|-2-------0---------|---------0---------|---------------o||
|------------------|-----------3-------|-3-----------------|----------------||


  E  E E E   E  E E E     E  E Q     E  E E E
|-----------------------|---------------------|
|-----------------2-----|------3--------------|
|------0------------2---|----2------------4---|
|----0---0------2-------|-0-------------4---4-|
|------------0----------|------------2--------|
|-3---------------------|---------------------|


  E  E E E   E E  E E    E E E E E E E E
|---------------------|----------0---2-----|
|---------------------|------3-------------|
|------0----------2---|----2---2---2---2---|
|----0---0-----2----2-|--0-----------------|
|------------0--------|--------------------|
|-3-------------------|--------------------|


  E  E E E   E  E E E     Q  Q   Q  Q
|-----------------------|---------------|
|-----------------2-----|---------------|
|------0------------2---|---------------|
|----0---0------2-------|-0-------------|
|------------0----------|----4---2--0---|
|-3---------------------|---------------|


   E E  E E  E  E    E E    E  E E E H      E E E E H
|------------------------|----------------|--------------|
|------------------------|-------3--------|--------------|
|-------0------------2---|-----2---2------|---2-0-2------|
|----0----0-----2------2-|--0--------0----|-0-------0----|
|------------0-----------|----------------|--------------|
|--3---------------------|----------------|--------------|


   E  E  H           Q       E  E  H           Q
|-------------------------|-------------------------|
|--------3----------------|--------2----------------|
|-----2-------------------|-----2-------------------|
|--0----------------------|-------------------------|
|-------------------------|--4----------------------|
|-------------------------|-------------------------|


   E  E  H           Q       E  E  H           Q
|-------------------------|--------------------------|
|-------------------------|--------------------------|
|--------4----------------|--------2-----------------|
|-----4-------------------|-----2--------------------|
|--2----------------------|--0-----------------------|
|-------------------------|--------------------------|


   E  E  H           Q       E  Q     Q.        Q
|-------------------------|--------------------------|
|-------------------------|-----------3--------------|
|--------0----------------|-----2--------------------|
|-----0-------------------|--0-----------------------|
|-------------------------|--------------------------|
|--3----------------------|--------------------------|


   H           H             E  E  H           Q
|-------------------------|--------------------------|
|-------------------------|--------------------------|
|-------------------------|--------2-----------------|
|--2----------------------|-----2--------------------|
|-------------------------|--0-----------------------|
|-------------------------|--------------------------|


   E  E  H           Q       E   E  H           Q
|-------------------------|--------------------------|
|--------3----------------|---------2----------------|
|-----2-------------------|------2-------------------|
|--0----------------------|--------------------------|
|-------------------------|--4-----------------------|
|-------------------------|--------------------------|


   E  E  H           Q       E  E  H           Q
|-------------------------|--------------------------|
|-------------------------|--------------------------|
|--------4----------------|--------------------------|
|-----4-------------------|--------4-----------------|
|--2----------------------|-----4--------------------|
|-------------------------|--2-----------------------|


   E   E  H           Q       E  Q     Q.        Q
|--------------------------|--------------------------|
|--------------------------|-----------3--------------|
|---------0----------------|-----2--------------------|
|------0-------------------|--0-----------------------|
|--------------------------|--------------------------|
|--3-----------------------|--------------------------|


   H           H                  E  E  H           Q        H.           Q
|------------------------------|-------------------------|-^-3----------------|
|------------------------------|-------------------------|-^-2----------------|
|------------------------------|--------2----------------|-^-2----------------|
|--2---------------------------|-----2-------------------|-^-2----------------|
|------------------------------|--0----------------------|-^-0----------------|
|------------------------------|-------------------------|--------------------|


   E  E Q   E Q.       E E  E  E E E E E    E E Q   E E  Q      E E Q  E E E E
|--------------------|-------------------|-------------------|-----------------*|
|-------3------------|-------------------|-------------------|-----3--------2--*|
|-----2-------2------|------4--------0---|-----0--------2----|---2--------2----*|
|--0-----------------|---4---------0---0-|---0-------2-------|-0--------2------*|
|-----------4--------|-2-------0---------|---------0---------|--------4--------*|
|--------------------|-----------3-------|-3-----------------|-----------------*|




Guitar 3

   H           Q     E  E    Q.        E  Q     E  E
|-------------17----------|--------------------------|
|-19----------------20-19-|-17--------19----------17-|
|-------------------------|--------------18----19----|
|-------------------------|--------------------------|
|-------------------------|--------------------------|
|-------------------------|--------------------------|


   E  E  E  E  Q     Q       H           Q     E  E
|-------------------19----|-17-------------------17--|
|----------17-19----------|-------------19----20-----|
|-19-18-19----------------|--------------------------|
|-------------------------|--------------------------|
|-------------------------|--------------------------|
|-------------------------|--------------------------|


   Q.        E  E  E  E  E    Q     Q      Q     E  E
|--------------------------|-------17-----------------|
|-20--------20-20-19-17-20-|-19-----------------------|
|--------------------------|--------------19----19-18-|
|--------------------------|--------------------------|
|--------------------------|--------------------------|
|--------------------------|--------------------------|


   H           E.     E.     E    H           Q     Q       +Q    Q   Q   Q
|------------------------------|-------------------17----|-(17)---------------|
|------------------------------|-19----------17----------|-------20--19--17---|
|-16----------16-----18-----19-|-------------------------|--------------------|
|------------------------------|-------------------------|--------------------|
|------------------------------|-------------------------|--------------------|
|------------------------------|-------------------------|--------------------|


   H.            Q     W                   W                   W
|--------------------|-------------------|-------------------|-----------------*|
|--------------------|-------------------|-------------------|-----------------*|
|-19-----------------|-------------------|-------------------|-----------------*|
|--------------------|-------------------|-------------------|-----------------*|
|--------------------|-------------------|-------------------|-----------------*|
|--------------------|-------------------|-------------------|-----------------*|

W - whole
H - half
Q - quarter
E - 8th
S - 16th

+ - note tied to previous
. - note dotted
Login or Register to remove this ad.

1 comment on A Cat Relaxing in the Sun

Thanks for the tabs of this

Thanks for the tabs of this great Game. I wish hear other arrangements