Battle 2 (The Legend of Dragoon) Bass Tab

Submitted: Mar 07, 2011 by auriplane

0
Download | Listen
Game: The Legend of Dragoon
Composer(s): Takeo Miratsu
Style: Transcription

AutoScroll: Slow | Medium | Fast
                 Legend of Dragoon - Battle 2 BASS TAB
                       Composed by Takeo Miratsu

                Tabbed by auriplane ([email protected])



Rest for two measures at the beginning.  The part at the end is triplets,
and I put letter "T"s over them to indicate that, since the spacing I used
for the rest of the song doesn't divide cleanly by three.


        Part A

G |----------------|----------------|----------------|----------------|
D |----------------|----------------|----------------|----------------|
A |----------------|----------------|----------------|----------------| x2
E |---3--5---------|----------------|---3--5---------|--------565353--|
B |5---------------|----------------|5---------------|--------------53|


G |----------------|----------------|----------------|----------------|
D |----------------|----------------|----------------|----------------|
A |----------------|----------------|----------------|----------------|
E |----------------|----------------|----------------|----------------|
B |4---------------|3---------------|2---------------|1---------------|


        Part B

G |----------------|----------------|----------------|----------------|
D |----------------|----------------|----------------|----------------|
A |----------------|----------------|----------------|----------------| x2
E |---3--5---------|----------------|---3--5---------|--------565353--|
B |5---------------|----------------|5---------------|--------------53|


G |----------------|----------------|----------------|----------------|
D |----------------|----------------|----------------|----------------|
A |----------------|----------------|----------------|----------------| x2
E |---4--6---------|----------------|---4--6---------|--------676464--|
B |6---------------|----------------|6---------------|--------------64|


G |----------------|----------------|----------------|----------------|
D |----------------|----------------|----------------|----------------|
A |----------------|----------------|----------------|----------------| x2
E |---3--5---------|----------------|---3--5---------|--------565353--|
B |5---------------|----------------|5---------------|--------------53|

                    T  T  T T  T  T
G |----------------|----------------|----------------|----------------|
D |----------------|----------------|----------------|----------------|
A |----------------|------3-4--5--6-|----------------|----------------|
E |---3--5---------|---7------------|----------------|----------------|
B |5---------------|----------------|5---------------|----------------|

        Repeat back to Part A.
Login or Register to remove this ad.