Login or Register to remove this ad.

Necropolis (combat) (Legacy of Kain: Soul Reaver) Bass/Guitar Tab

Submitted: Aug 28, 2010 by Jacob31593 (Last updated: Aug 29, 2010)

5
Average: 5 (2 votes)
Download | Listen
Game: Legacy of Kain: Soul Reaver
Composer(s): Kurt Harland
Style: 2 or more instruments, Alternate picking, Arrangement, Transcription
Series: Legacy of Kain

AutoScroll: Slow | Medium | Fast

Necropolis (combat) from Legacy of Kain: Soul Reaver
Composed by Kurt Harland
Tabbed by Jacob31593
August 28th 2010

The second guitar is almost in drop d, only the string is tuned down to c :O

Edit: i just found a version of this song with the same title, but the second guitar is largely different and there isnt even a bass, there are also some slight differences in the first guitar. here is the link to the version of the song i used http://www.youtube.com/watch?v=NeDuYn9baJw

110 BPM

Guitar 1
                                                                      Q    E  Q    E  Q     
E||--------|-------|-------|-------|-------|-------|-------|-------|-----------------------|
B||--------|-------|-------|-------|-------|-------|-------|-------|-----------------------|
G||*-------|-------|-------|-------|-------|-------|-------|-------|-------8-------8-------|
D||*-------|-------|-------|-------|-------|-------|-------|-------|-------8-------8-------|
A||--------|-------|-------|-------|-------|-------|-------|-------|-------6-------6-------|
E||--------|-------|-------|-------|-------|-------|-------|-------|-----------------------|


  E  Q    E  H           Q    E  Q    E  Q        E  Q    E  Q     E  E     Q    E  H        E   
----------------------|-----------------------|--------------------------|----------------------|
----------------------|-----------------------|--------------------------|----------------------|
--9-------8-----------|-------8-------8-------|--11-------8-------11-----|-------9--------------|
--9-------8-----------|-------8-------8-------|--11-------8-------11-----|-------9--------------|
--7-------6-----------|-------6-------6-------|---9-------6--------9-----|-------7--------------|
----------------------|-----------------------|--------------------------|----------------------|


   E  Q    E  H           Q     E  Q    E  Q        E  Q    E  Q     E  E     Q    E  Q    Q    E   
-----------------------|------------------------|--------------------------|-----------------------|
-----------------------|------------------------|--------------------------|-----------------------|
--11-------9-----------|-------11-------9-------|--12-------9-------12-----|-------6---------------|
--11-------9-----------|-------11-------9-------|--12-------9-------12-----|-------6---------------|
---9-------7-----------|--------9-------7-------|--10-------7-------10-----|-------4---------------|
-----------------------|------------------------|--------------------------|-----------------------|


  Q.     E  H           Q    E  Q    Q.        E  Q    E  Q    E  E     Q    E  Q    E  Q     
---------------------|----------------------|------------------------|-----------------------|
---------------------|----------------------|------------------------|-----------------------|
---------6-----------|-------6--------------|--7-------6-------9-----|-------9-------9-------|
---------6-----------|-------6--------------|--7-------6-------9-----|-------9-------9-------|
---------4-----------|-------4--------------|--5-------4-------7-----|-------7-------7-------|
---------------------|----------------------|------------------------|-----------------------|


   E  Q     E  H           Q    E  Q    E  Q        E  Q     E  Q     E  E     W                             
------------------------|-----------------------|---------------------------|-------------------|-----------|
------------------------|-----------------------|---------------------------|-------------------|-----------|
--11-------12-----------|-------9-------9-------|--11-------12-------15-----|--8----------------|-----------|
--11-------12-----------|-------9-------9-------|--11-------12-------15-----|--8----------------|-----------|
---9-------10-----------|-------7-------7-------|---9-------10-------13-----|--6----------------|-----------|
------------------------|-----------------------|---------------------------|--6----------------|-----------|


  W                                       W                               W                 
-------------------|-------------------|-------------------|-----------|-------------------|
-------------------|-------------------|-------------------|-----------|-------------------|
--8----------------|-------------------|--9----------------|-----------|--8----------------|
--8----------------|-------------------|--9----------------|-----------|--8----------------|
--6----------------|-------------------|--7----------------|-----------|--6----------------|
--6----------------|-------------------|--7----------------|-----------|--6----------------|


-------------------|-------------------|-------------------|-------------------|-------------------|
-------------------|-------------------|-------------------|-------------------|-------------------|
-------------------|-------------------|-------------------|-------------------|-------------------|
-------------------|-------------------|-------------------|-------------------|-------------------|
-------------------|-------------------|-------------------|-------------------|-------------------|
-------------------|-------------------|-------------------|-------------------|-------------------|


-------------------|-------------------|-------------------|-------------------|-------------------|
-------------------|-------------------|-------------------|-------------------|-------------------|
-------------------|-------------------|-------------------|-------------------|-------------------|
-------------------|-------------------|-------------------|-------------------|-------------------|
-------------------|-------------------|-------------------|-------------------|-------------------|
-------------------|-------------------|-------------------|-------------------|-------------------|


                      Q    E  Q    E  Q       E  Q    E  H           Q    E  Q    E  Q     
-------------------|-----------------------|----------------------|-----------------------|
-------------------|-----------------------|----------------------|-----------------------|
-------------------|-------8-------8-------|--9-------8-----------|-------8-------8-------|
-------------------|-------8-------8-------|--9-------8-----------|-------8-------8-------|
-------------------|-------6-------6-------|--7-------6-----------|-------6-------6-------|
-------------------|-----------------------|----------------------|-----------------------|


   E  Q    E  Q     E  E     Q    E  H        E      E  Q    E  H           Q     E  Q    E  Q     
--------------------------|----------------------|-----------------------|------------------------|
--------------------------|----------------------|-----------------------|------------------------|
--11-------8-------11-----|-------9--------------|--11-------9-----------|-------11-------9-------|
--11-------8-------11-----|-------9--------------|--11-------9-----------|-------11-------9-------|
---9-------6--------9-----|-------7--------------|---9-------7-----------|--------9-------7-------|
--------------------------|----------------------|-----------------------|------------------------|


   E  Q    E  Q     E  E     Q    E  Q    Q    E     Q.     E  H           Q    E  Q    Q.      
--------------------------|-----------------------|---------------------|----------------------|
--------------------------|-----------------------|---------------------|----------------------|
--12-------9-------12-----|-------6---------------|---------6-----------|-------6--------------|
--12-------9-------12-----|-------6---------------|---------6-----------|-------6--------------|
--10-------7-------10-----|-------4---------------|---------4-----------|-------4--------------|
--------------------------|-----------------------|---------------------|----------------------|


  E  Q    E  Q    E  E     Q    E  Q    E  Q        E  Q     E  H           Q    E  Q    E  Q     
------------------------|-----------------------|------------------------|-----------------------|
------------------------|-----------------------|------------------------|-----------------------|
--7-------6-------9-----|-------9-------9-------|--11-------12-----------|-------9-------9-------|
--7-------6-------9-----|-------9-------9-------|--11-------12-----------|-------9-------9-------|
--5-------4-------7-----|-------7-------7-------|---9-------10-----------|-------7-------7-------|
------------------------|-----------------------|------------------------|-----------------------|


   E  Q     E  Q     E  E     W                               W                                     
---------------------------|-------------------|-----------|-------------------|-------------------|
---------------------------|-------------------|-----------|-------------------|-------------------|
--11-------12-------15-----|--8----------------|-----------|--8----------------|-------------------|
--11-------12-------15-----|--8----------------|-----------|--8----------------|-------------------|
---9-------10-------13-----|--6----------------|-----------|--6----------------|-------------------|
---------------------------|--6----------------|-----------|--6----------------|-------------------|


  W                               W                                                         
-------------------|-----------|-------------------|-------------------|-------------------|
-------------------|-----------|-------------------|-------------------|-------------------|
--9----------------|-----------|--8----------------|-------------------|-------------------|
--9----------------|-----------|--8----------------|-------------------|-------------------|
--7----------------|-----------|--6----------------|-------------------|-------------------|
--7----------------|-----------|--6----------------|-------------------|-------------------|


--------------------||
--------------------||
-------------------*||
-------------------*||
--------------------||
--------------------||




Duration Legend
---------------
W - whole
H - half
Q - quarter
E - 8th
. - note dotted


Tablature Legend
----------------
L - tied note

Guitar 2

      E  E  E  E  E  E  E  E     E  E  E  E  E  E  E  E     E  E  E  E  E  E  E  E   
E||---------------------------|--------------------------|--------------------------|
B||---------------------------|--------------------------|--------------------------|
G||*--------------------------|--------------------------|--------------------------|
D||*--------------------------|--------------------------|--------------------------|
A||---6--6--6--6--6--6--6--6--|--6--6--6--6--6--6--6--6--|--6--6--6--6--6--6--6--6--|
C||---3-----3-----3-----3-----|--3-----3-----3-----3-----|--3-----3-----3-----3-----|


  E  E  E  E  E  E  E  E     E  E  E  E  E  E  E  E     E  E  E  E  E  E  E  E     E  E  E  E  E  E  E  E   
--------------------------|--------------------------|--------------------------|--------------------------|
--------------------------|--------------------------|--------------------------|--------------------------|
--------------------------|--------------------------|--------------------------|--------------------------|
--------------------------|--------------------------|--------------------------|--------------------------|
--6--6--6--6--6--6--6--6--|--6--6--6--6--6--6--6--6--|--6--6--6--6--6--6--6--6--|--6--6--6--6--6--6--6--6--|
--3-----3-----3-----3-----|--3-----3-----3-----3-----|--3-----3-----3-----3-----|--3-----3-----3-----3-----|


  E  E  E  E  E  E  E  E     E  S S S S E  S S S S E  E     E  S S S S E  S S S S E  E   
--------------------------|------------------------------|------------------------------|
--------------------------|------------------------------|------------------------------|
--------------------------|------------------------------|------------------------------|
--------------------------|------------------------------|------------------------------|
--6--6--6--6--6--6--6--6--|--6--6-6-6-6-6--6-6-6-6-6--6--|--6--6-6-6-6-6--6-6-6-6-6--6--|
--3-----3-----3-----3-----|------------------------------|------------------------------|


  E  S S S S E  S S S S E  E     E  S S S S E  S S S S E  E     E  S S S S E  S S S S E  E   
------------------------------|------------------------------|------------------------------|
------------------------------|------------------------------|------------------------------|
------------------------------|------------------------------|------------------------------|
------------------------------|------------------------------|------------------------------|
--6--6-6-6-6-6--6-6-6-6-6--6--|--6--6-6-6-6-6--6-6-6-6-6--6--|--7--7-7-7-7-7--7-7-7-7-7--7--|
------------------------------|------------------------------|------------------------------|


  E  S S S S E  S S S S E  E     E  S S S S E  S S S S E  E     E  S S S S E  S S S S E  E   
------------------------------|------------------------------|------------------------------|
------------------------------|------------------------------|------------------------------|
------------------------------|------------------------------|------------------------------|
------------------------------|------------------------------|------------------------------|
--7--7-7-7-7-7--7-7-7-7-7--7--|--7--7-7-7-7-7--7-7-7-7-7--7--|--7--7-7-7-7-7--7-7-7-7-7--7--|
------------------------------|------------------------------|------------------------------|


  E  S S S S E  S S S S E  E     E  S S S S E  S S S S E  E     E  S S S S E  S S S S E  E   
------------------------------|------------------------------|------------------------------|
------------------------------|------------------------------|------------------------------|
------------------------------|------------------------------|------------------------------|
------------------------------|------------------------------|------------------------------|
--4--4-4-4-4-4--4-4-4-4-4--4--|--4--4-4-4-4-4--4-4-4-4-4--4--|--4--4-4-4-4-4--4-4-4-4-4--4--|
------------------------------|------------------------------|------------------------------|


  E  S S S S E  S S S S E  E     E  S S S S E  S S S S E  E     E  S S S S E  S S S S E  E   
------------------------------|------------------------------|------------------------------|
------------------------------|------------------------------|------------------------------|
------------------------------|------------------------------|------------------------------|
------------------------------|------------------------------|------------------------------|
--4--4-4-4-4-4--4-4-4-4-4--4--|--7--7-7-7-7-7--7-7-7-7-7--7--|--7--7-7-7-7-7--7-7-7-7-7--7--|
------------------------------|------------------------------|------------------------------|


  E  S S S S E  S S S S E  E     E  S S S S E  S S S S E  E     E  E  E  E  E  E  E  E   
------------------------------|------------------------------|--------------------------|
------------------------------|------------------------------|--------------------------|
------------------------------|------------------------------|--------------------------|
------------------------------|------------------------------|--------------------------|
--7--7-7-7-7-7--7-7-7-7-7--7--|--7--7-7-7-7-7--7-7-7-7-7--7--|--6--6--6--6--6--6--6--6--|
------------------------------|------------------------------|--3-----3-----3-----3-----|


  E  E  E  E  E  E  E  E     E  E  E  E  E  E  E  E     E  E  E  E  E  E  E  E     E  E  E  E  E  E  E  E   
--------------------------|--------------------------|--------------------------|--------------------------|
--------------------------|--------------------------|--------------------------|--------------------------|
--------------------------|--------------------------|--------------------------|--------------------------|
--------------------------|--------------------------|--------------------------|--------------------------|
--6--6--6--6--6--6--6--6--|--6--6--6--6--6--6--6--6--|--6--6--6--6--6--6--6--6--|--7--7--7--7--7--7--7--7--|
--3-----3-----3-----3-----|--3-----3-----3-----3-----|--3-----3-----3-----3-----|--4-----4-----4-----4-----|


  E  E  E  E  E  E  E  E     E  E  E  E  E  E  E  E     E  E  E  E  E  E  E  E               
--------------------------|--------------------------|--------------------------|-----|-----|
--------------------------|--------------------------|--------------------------|-----|-----|
--------------------------|--------------------------|--------------------------|-----|-----|
--------------------------|--------------------------|--------------------------|-----|-----|
--7--7--7--7--7--7--7--7--|--6--6--6--6--6--6--6--6--|--6--6--6--6--6--6--6--6--|-----|-----|
--4-----4-----4-----4-----|--3-----3-----3-----3-----|--3-----3-----3-----3-----|-----|-----|


  E  E  E  E  E  E  E  E     E  E  E  E  E  E  E  E     E  E  E  E  E  E  E  E     E  E  E  E  E  E  E  E   
--------------------------|--------------------------|--------------------------|--------------------------|
--------------------------|--------------------------|--------------------------|--------------------------|
--------------------------|--------------------------|--------------------------|--------------------------|
--------------------------|--------------------------|--------------------------|--------------------------|
--6--6--6--6--6--6--6--6--|--6--6--6--6--6--6--6--6--|--6--6--6--6--6--6--6--6--|--6--6--6--6--6--6--6--6--|
--3-----3-----3-----3-----|--3-----3-----3-----3-----|--3-----3-----3-----3-----|--3-----3-----3-----3-----|


  E  E  E  E  E  E  E  E     E  E  E  E  E  E  E  E     E  E  E  E  E  E  E  E     E  E  E  E  E  E  E  E   
--------------------------|--------------------------|--------------------------|--------------------------|
--------------------------|--------------------------|--------------------------|--------------------------|
--------------------------|--------------------------|--------------------------|--------------------------|
--------------------------|--------------------------|--------------------------|--------------------------|
--6--6--6--6--6--6--6--6--|--6--6--6--6--6--6--6--6--|--6--6--6--6--6--6--6--6--|--6--6--6--6--6--6--6--6--|
--3-----3-----3-----3-----|--3-----3-----3-----3-----|--3-----3-----3-----3-----|--3-----3-----3-----3-----|


  E  S S S S E  S S S S E  E     E  S S S S E  S S S S E  E     E  S S S S E  S S S S E  E   
------------------------------|------------------------------|------------------------------|
------------------------------|------------------------------|------------------------------|
------------------------------|------------------------------|------------------------------|
------------------------------|------------------------------|------------------------------|
--6--6-6-6-6-6--6-6-6-6-6--6--|--6--6-6-6-6-6--6-6-6-6-6--6--|--6--6-6-6-6-6--6-6-6-6-6--6--|
------------------------------|------------------------------|------------------------------|


  E  S S S S E  S S S S E  E     E  S S S S E  S S S S E  E     E  S S S S E  S S S S E  E   
------------------------------|------------------------------|------------------------------|
------------------------------|------------------------------|------------------------------|
------------------------------|------------------------------|------------------------------|
------------------------------|------------------------------|------------------------------|
--6--6-6-6-6-6--6-6-6-6-6--6--|--7--7-7-7-7-7--7-7-7-7-7--7--|--7--7-7-7-7-7--7-7-7-7-7--7--|
------------------------------|------------------------------|------------------------------|


  E  S S S S E  S S S S E  E     E  S S S S E  S S S S E  E     E  S S S S E  S S S S E  E   
------------------------------|------------------------------|------------------------------|
------------------------------|------------------------------|------------------------------|
------------------------------|------------------------------|------------------------------|
------------------------------|------------------------------|------------------------------|
--7--7-7-7-7-7--7-7-7-7-7--7--|--7--7-7-7-7-7--7-7-7-7-7--7--|--4--4-4-4-4-4--4-4-4-4-4--4--|
------------------------------|------------------------------|------------------------------|


  E  S S S S E  S S S S E  E     E  S S S S E  S S S S E  E     E  S S S S E  S S S S E  E   
------------------------------|------------------------------|------------------------------|
------------------------------|------------------------------|------------------------------|
------------------------------|------------------------------|------------------------------|
------------------------------|------------------------------|------------------------------|
--4--4-4-4-4-4--4-4-4-4-4--4--|--4--4-4-4-4-4--4-4-4-4-4--4--|--4--4-4-4-4-4--4-4-4-4-4--4--|
------------------------------|------------------------------|------------------------------|


  E  S S S S E  S S S S E  E     E  S S S S E  S S S S E  E     E  S S S S E  S S S S E  E   
------------------------------|------------------------------|------------------------------|
------------------------------|------------------------------|------------------------------|
------------------------------|------------------------------|------------------------------|
------------------------------|------------------------------|------------------------------|
--7--7-7-7-7-7--7-7-7-7-7--7--|--7--7-7-7-7-7--7-7-7-7-7--7--|--7--7-7-7-7-7--7-7-7-7-7--7--|
------------------------------|------------------------------|------------------------------|


  E  S S S S E  S S S S E  E     E  E  E  E  E  E  E  E     E  E  E  E  E  E  E  E   
------------------------------|--------------------------|--------------------------|
------------------------------|--------------------------|--------------------------|
------------------------------|--------------------------|--------------------------|
------------------------------|--------------------------|--------------------------|
--7--7-7-7-7-7--7-7-7-7-7--7--|--6--6--6--6--6--6--6--6--|--6--6--6--6--6--6--6--6--|
------------------------------|--3-----3-----3-----3-----|--3-----3-----3-----3-----|


  E  E  E  E  E  E  E  E     E  E  E  E  E  E  E  E     E  E  E  E  E  E  E  E     E  E  E  E  E  E  E  E   
--------------------------|--------------------------|--------------------------|--------------------------|
--------------------------|--------------------------|--------------------------|--------------------------|
--------------------------|--------------------------|--------------------------|--------------------------|
--------------------------|--------------------------|--------------------------|--------------------------|
--6--6--6--6--6--6--6--6--|--6--6--6--6--6--6--6--6--|--7--7--7--7--7--7--7--7--|--7--7--7--7--7--7--7--7--|
--3-----3-----3-----3-----|--3-----3-----3-----3-----|--4-----4-----4-----4-----|--4-----4-----4-----4-----|


  E  E  E  E  E  E  E  E     E  E  E  E  E  E  E  E                 
--------------------------|--------------------------|-----|------||
--------------------------|--------------------------|-----|------||
--------------------------|--------------------------|-----|-----*||
--------------------------|--------------------------|-----|-----*||
--6--6--6--6--6--6--6--6--|--6--6--6--6--6--6--6--6--|-----|------||
--3-----3-----3-----3-----|--3-----3-----3-----3-----|-----|------||




Duration Legend
---------------
W - whole
H - half
Q - quarter
E - 8th
S - 16th
. - note dotted


Tablature Legend
----------------
L - tied note

Guitar 3

                                              E   H        Q.                E   Q      E    H         
E||--------|-------|-------|-------|-------|----------------------|-------|---------------------------|
B||--------|-------|-------|-------|-------|-----16--------L------|-------|-----16s----17s--16--------|
G||*-------|-------|-------|-------|-------|----------------------|-------|---------------------------|
D||*-------|-------|-------|-------|-------|----------------------|-------|---------------------------|
A||--------|-------|-------|-------|-------|----------------------|-------|---------------------------|
E||--------|-------|-------|-------|-------|----------------------|-------|---------------------------|


-------|-------|-------|-------|-------|-------|-------|-------|-------|-------|-------|-------|-------|
-------|-------|-------|-------|-------|-------|-------|-------|-------|-------|-------|-------|-------|
-------|-------|-------|-------|-------|-------|-------|-------|-------|-------|-------|-------|-------|
-------|-------|-------|-------|-------|-------|-------|-------|-------|-------|-------|-------|-------|
-------|-------|-------|-------|-------|-------|-------|-------|-------|-------|-------|-------|-------|
-------|-------|-------|-------|-------|-------|-------|-------|-------|-------|-------|-------|-------|


                                                                                           W                 
-------|-------|-------|-------|-------|-------|-------|-------|-------|-------|-------|--------------------|
-------|-------|-------|-------|-------|-------|-------|-------|-------|-------|-------|--------------------|
-------|-------|-------|-------|-------|-------|-------|-------|-------|-------|-------|--------------------|
-------|-------|-------|-------|-------|-------|-------|-------|-------|-------|-------|--13----------------|
-------|-------|-------|-------|-------|-------|-------|-------|-------|-------|-------|--------------------|
-------|-------|-------|-------|-------|-------|-------|-------|-------|-------|-------|--11----------------|


  W                   W                   W                                                         
-------------------|-------------------|-------------------|-------------------|-------------------|
-------------------|-------------------|-------------------|-------------------|-------------------|
-------------------|-------------------|-------------------|-------------------|-------------------|
--9----------------|--8----------------|--L----------------|-------------------|-------------------|
-------------------|-------------------|-------------------|-------------------|-------------------|
--7----------------|--6----------------|--L----------------|-------------------|-------------------|


                                                                                   W                 
-------------------|-------------------|-------------------|-------------------|--------------------|
-------------------|-------------------|-------------------|-------------------|--16----------------|
-------------------|-------------------|-------------------|-------------------|--------------------|
-------------------|-------------------|-------------------|-------------------|--------------------|
-------------------|-------------------|-------------------|-------------------|--------------------|
-------------------|-------------------|-------------------|-------------------|--------------------|


   Q.      E    E   E    Q        W                    Q.      E    E   E    Q        W                 
------------------------------|--------------------|------------------------------|--------------------|
--17------17s--16--17s--16----|--16----------------|--17------17s--16--17s--16----|--17----------------|
------------------------------|--------------------|------------------------------|--------------------|
------------------------------|--------------------|------------------------------|--------------------|
------------------------------|--------------------|------------------------------|--------------------|
------------------------------|--------------------|------------------------------|--------------------|


   Q.      E    E   E    Q        W                    W                    W                 
------------------------------|--------------------|--------------------|--------------------|
--19------19s--17--19s--17----|--15----------------|--19----------------|--14----------------|
------------------------------|--------------------|--------------------|--------------------|
------------------------------|--------------------|--------------------|--------------------|
------------------------------|--------------------|--------------------|--------------------|
------------------------------|--------------------|--------------------|--------------------|


   Q.      E   E   E   E   E      W                    Q.      E    E   E    Q        W                 
------------------------------|--------------------|------------------------------|--------------------|
--15------15--14--15--14--15--|--------------------|--15------15s--14--15s--14----|--17----------------|
------------------------------|--16----------------|------------------------------|--------------------|
------------------------------|--------------------|------------------------------|--------------------|
------------------------------|--------------------|------------------------------|--------------------|
------------------------------|--------------------|------------------------------|--------------------|


   W                    W                    W                                                         
--------------------|--------------------|--------------------|-------------------|-------------------|
--19----------------|--15----------------|--17----------------|-------------------|-------------------|
--------------------|--------------------|--------------------|-------------------|-------------------|
--------------------|--------------------|--------------------|-------------------|-------------------|
--------------------|--------------------|--------------------|-------------------|-------------------|
--------------------|--------------------|--------------------|-------------------|-------------------|


-------------------|-------------------|-------------------|-------------------|-------------------|
-------------------|-------------------|-------------------|-------------------|-------------------|
-------------------|-------------------|-------------------|-------------------|-------------------|
-------------------|-------------------|-------------------|-------------------|-------------------|
-------------------|-------------------|-------------------|-------------------|-------------------|
-------------------|-------------------|-------------------|-------------------|-------------------|


                       W                   H        H           
-------------------|--------------------|---------------------||
-------------------|--------------------|---------------------||
-------------------|--------------------|--------------------*||
-------------------|--13----------------|--9-----------------*||
-------------------|--------------------|---------------------||
-------------------|--11----------------|--7------------------||




Duration Legend
---------------
W - whole
H - half
Q - quarter
E - 8th
S - 16th
. - note dotted


Tablature Legend
----------------
L - tied note

Bass

G||--------|-------|-------|-------|---------------------------|---------------------------|
D||*-------|-------|-------|-------|---------------------------|---------------------------|
A||*-------|-------|-------|-------|--6--------------6-6-6--6--|--6--------------6-6-6--6--|
E||--------|-------|-------|-------|---------------------------|---------------------------|


  E  E  E  E  E  S S E  E     E  E  E  E  E  S S E  E     E  E  E  E  E  S S E  E   
---------------------------|---------------------------|---------------------------|
---------------------------|---------------------------|---------------------------|
--6--------------6-6-6--6--|--6--------------6-6-6--6--|--6--------------6-6-6--6--|
---------------------------|---------------------------|---------------------------|


  E  E  E  E  E  S S E  E     E  E  E  E  E  S S E  E     E  E  E  E  E  S S E  E   
---------------------------|---------------------------|---------------------------|
---------------------------|---------------------------|---------------------------|
--6--------------6-6-6--6--|--6--------------6-6-6--6--|--6--------------6-6-6--6--|
---------------------------|---------------------------|---------------------------|


  E  E  E  E  E  S S E  E     E  E  E  E  E  S S E  E     E  E  E  E  E  S S E  E   
---------------------------|---------------------------|---------------------------|
---------------------------|---------------------------|---------------------------|
--7--------------7-7-7--7--|--7--------------7-7-7--7--|--7--------------7-7-7--7--|
---------------------------|---------------------------|---------------------------|


  E  E  E  E  E  S S E  E     E  E  E  E  E  S S E  E     E  E  E  E  E  S S E  E   
---------------------------|---------------------------|---------------------------|
---------------------------|---------------------------|---------------------------|
--7--------------7-7-7--7--|--4--------------4-4-4--4--|--4--------------4-4-4--4--|
---------------------------|---------------------------|---------------------------|


  E  E  E  E  E  S S E  E     E  E  E  E  E  S S E  E     E  E  E  E  E  S S E  E   
---------------------------|---------------------------|---------------------------|
---------------------------|---------------------------|---------------------------|
--4--------------4-4-4--4--|--4--------------4-4-4--4--|--7--------------7-7-7--7--|
---------------------------|---------------------------|---------------------------|


  E  E  E  E  E  S S E  E     E  E  E  E  E  S S E  E     E  E  E  E  E  S S E  E   
---------------------------|---------------------------|---------------------------|
---------------------------|---------------------------|---------------------------|
--7--------------7-7-7--7--|--7--------------7-7-7--7--|--7--------------7-7-7--7--|
---------------------------|---------------------------|---------------------------|


  E  E  E  E  E  S S E  E     E  E  E  E  E  S S E  E     E  E  E  E  E  S S E  E   
---------------------------|---------------------------|---------------------------|
---------------------------|---------------------------|---------------------------|
--6--------------6-6-6--6--|--6--------------6-6-6--6--|--6--------------6-6-6--6--|
---------------------------|---------------------------|---------------------------|


  E  E  E  E  E  S S E  E     E  E  E  E  E  S S E  E     E  E  E  E  E  S S E  E   
---------------------------|---------------------------|---------------------------|
---------------------------|---------------------------|---------------------------|
--6--------------6-6-6--6--|--7--------------7-7-7--7--|--7--------------7-7-7--7--|
---------------------------|---------------------------|---------------------------|


  E  E  E  E  E  S S E  E     E  E  E  E  E  S S E  E                                       
---------------------------|---------------------------|-----|-----|-----|-----|-----|-----|
---------------------------|---------------------------|-----|-----|-----|-----|-----|-----|
--6--------------6-6-6--6--|--6--------------6-6-6--6--|-----|-----|-----|-----|-----|-----|
---------------------------|---------------------------|-----|-----|-----|-----|-----|-----|


  E  E  E  E  E  S S E  E     E  E  E  E  E  S S E  E     E  E  E  E  E  S S E  E   
---------------------------|---------------------------|---------------------------|
---------------------------|---------------------------|---------------------------|
--6--------------6-6-6--6--|--6--------------6-6-6--6--|--6--------------6-6-6--6--|
---------------------------|---------------------------|---------------------------|


  E  E  E  E  E  S S E  E     E  E  E  E  E  S S E  E     E  E  E  E  E  S S E  E   
---------------------------|---------------------------|---------------------------|
---------------------------|---------------------------|---------------------------|
--6--------------6-6-6--6--|--6--------------6-6-6--6--|--6--------------6-6-6--6--|
---------------------------|---------------------------|---------------------------|


  E  E  E  E  E  S S E  E     E  E  E  E  E  S S E  E     E  E  E  E  E  S S E  E   
---------------------------|---------------------------|---------------------------|
---------------------------|---------------------------|---------------------------|
--6--------------6-6-6--6--|--6--------------6-6-6--6--|--7--------------7-7-7--7--|
---------------------------|---------------------------|---------------------------|


  E  E  E  E  E  S S E  E     E  E  E  E  E  S S E  E     E  E  E  E  E  S S E  E   
---------------------------|---------------------------|---------------------------|
---------------------------|---------------------------|---------------------------|
--7--------------7-7-7--7--|--7--------------7-7-7--7--|--7--------------7-7-7--7--|
---------------------------|---------------------------|---------------------------|


  E  E  E  E  E  S S E  E     E  E  E  E  E  S S E  E     E  E  E  E  E  S S E  E   
---------------------------|---------------------------|---------------------------|
---------------------------|---------------------------|---------------------------|
--4--------------4-4-4--4--|--4--------------4-4-4--4--|--4--------------4-4-4--4--|
---------------------------|---------------------------|---------------------------|


  E  E  E  E  E  S S E  E     E  E  E  E  E  S S E  E     E  E  E  E  E  S S E  E   
---------------------------|---------------------------|---------------------------|
---------------------------|---------------------------|---------------------------|
--4--------------4-4-4--4--|--7--------------7-7-7--7--|--7--------------7-7-7--7--|
---------------------------|---------------------------|---------------------------|


  E  E  E  E  E  S S E  E     E  E  E  E  E  S S E  E     E  E  E  E  E  S S E  E   
---------------------------|---------------------------|---------------------------|
---------------------------|---------------------------|---------------------------|
--7--------------7-7-7--7--|--7--------------7-7-7--7--|--6--------------6-6-6--6--|
---------------------------|---------------------------|---------------------------|


  E  E  E  E  E  S S E  E     E  E  E  E  E  S S E  E     E  E  E  E  E  S S E  E   
---------------------------|---------------------------|---------------------------|
---------------------------|---------------------------|---------------------------|
--6--------------6-6-6--6--|--6--------------6-6-6--6--|--6--------------6-6-6--6--|
---------------------------|---------------------------|---------------------------|


  E  E  E  E  E  S S E  E     E  E  E  E  E  S S E  E     E  E  E  E  E  S S E  E   
---------------------------|---------------------------|---------------------------|
---------------------------|---------------------------|---------------------------|
--7--------------7-7-7--7--|--7--------------7-7-7--7--|--6--------------6-6-6--6--|
---------------------------|---------------------------|---------------------------|


  E  E  E  E  E  S S E  E                 
---------------------------|-----|------||
---------------------------|-----|-----*||
--6--------------6-6-6--6--|-----|-----*||
---------------------------|-----|------||




Duration Legend
---------------
W - whole
H - half
Q - quarter
E - 8th
S - 16th
. - note dotted


Tablature Legend
----------------
L - tied note
Login or Register to remove this ad.

1 comment on Necropolis (combat)

awesome!

5

my favorite theme