Ads

Main Theme (The Last of Us) Guitar Tab

Submitted: Jan 07, 2014 by N0Stars

5
Average: 5 (7 votes)
Download | Listen
Game: The Last of Us
Composer(s): Gustavo Santaolalla
Style: Arrangement, Fingerstyle

AutoScroll: Slow | Medium | Fast
The Last of Us - The Last of Us
(The Title Screen Version of the Main Theme)

Composed by Gustavo Santaolalla

Arranged for Solo Guitar by N0Stars

Gtr I (E A D G B E) - 'Untitled'

    Q.=110
   6/8
    Gtr I
    E E E E E E   E E E E E E     E E E E E E   E E E E E E
||--------------|--------------||-7-----------|----------------|
||o-8-----8-----|-8-----8-----o||-8-----8-----|-8-----8--------|
||------9-----9-|-----9-----9--||-----9-----9-|-----9-----9----|
||----9-----9---|---9-----9----||---9-----9---|---9-----9------|
||o-------------|-------------o||-------------|----------------|
||--------------|--------------||-0-----------|----------------|


  E E E E E E   E E E E E E   E E E E E E   E E E E E E
|-------------|-------------|-------------|----------------|
|-8-----8-----|-8-----8-----|-8-----8-----|-8-----8--------|
|-----9-----9-|-----9-----9-|-----9-----9-|-----9-----9----|
|---9-----9---|---9-----9---|---9-----9---|---9-----9------|
|-------------|-------7-----|-------------|----------------|
|-------------|-------------|-7-----------|----------------|


  E E E E E E   E E E E E E   E E E E E E   E E E E E E
|-------------|-------------|-------------|----------------|
|-8-----8-----|-8-----8-----|-8-----8-----|-8-----8--------|
|-----9-----9-|-----9-----9-|-----9-----9-|-----9-----9----|
|---9-----9---|---9-----9---|---9-----9---|---9-----9------|
|-------------|-------------|-7-----------|----------------|
|-------------|-------7-----|-------------|----------------|


  E E E E E E   E E E Q.
|-------------|-------------|
|-8-----8-----|-8-----8-----|
|-----9-----9-|-----9-------|
|---9-----9---|---9---------|
|-------------|-------------|
|-------------|-------------|


   E E E E E E    E E E E E E   E   E E E E E   E E E E E E
|------0-----0-|------0-----0-|-------0-----0-|-----0-----0----|
|----0-----0---|-10-----7-----|-8-------8-----|-8-----8--------|
|-12-----9-----|--------------|---------------|----------------|
|--------------|----9-----9---|-----9-----9---|---9-----9------|
|--------------|--------------|-7-------------|----------------|
|--0-----------|--7-----------|---------------|----------------|


   E E E E E E    E E E E E E    a  E E E  E E E    E E E  E E E
|------0-----0-|------0-----0-|---------0------0-|------0------0----|
|----0-----0---|-10-----7-----|-10S12-----12-----|-12-----12--------|
|-12-----9-----|--------------|------------------|------------------|
|--------------|----9-----9---|-------9------9---|----9------9------|
|--------------|--------------|------------------|------------------|
|--0-----------|--7-----------|--0---------------|------------------|


   |--3--|
   S  S  S E E E E E    E E E E E E   E E E E E E   E E E E E E
|------------0-0---0-|------0-----0-|-----0-----0-|-----0-----0----|
|----------0-----0---|-10-----7-----|-8-----8-----|-8-----8--------|
|-12-14-12-----------|--------------|-------------|----------------|
|--------------------|----9-----9---|---9-----9---|---9-----9------|
|--------------------|--------------|-7-----------|----------------|
|--0-----------------|--7-----------|-------------|----------------|


                  |-3--|
   E E E  E E E   S  S S E E E E E   a E E E E E E   E E E E E E
|------0------0-|----------0-0-----|-------0-0---0-|-0---0-0---0----|
|-11-----10-----|-8-10-8-----------|-----0-----0---|---0-----0------|
|---------------|----------------7-|-7S9-----------|----------------|
|----9------9---|--------9-----9---|---------------|----------------|
|---------------|------------------|---------------|----------------|
|--8------------|-7----------------|-0-------------|----------------|


   E E E E E E   E E E E E E    E E E E E E   E E E E E E
|-^0---0-0---0-|-0---0-0---0-|-^0---0-0---0-|-0---0-7--------|
|-^0-0-----0---|---0-----0---|-^0-0-----0---|---0-----0------|
|-^0-----------|-------------|-^0-----------|-------9---9----|
|-^2-----------|-------------|-^2-----------|----------------|
|-^2-----------|-------------|-^2-----------|----------------|
|-^0-----------|-------------|-^0-----------|----------------|


   E E E  E E E    E E E  E E E    E  E E E  E E   E  E E E  E E
|-10-----10-----|-10-----10-----|--9------9------|-9------9---------|
|--0-0------0---|----0------0---|----------------|------------------|
|--9---9------9-|------9------9-|--9----9------9-|------9------9----|
|---------------|---------------|-11-11-----11---|---11-----11------|
|--7------------|---------------|--0-------------|------------------|
|---------------|---------------|----------------|------------------|


   E  E E E  E E   E  E E E  E E   E E E E E E   E E E E E E
|--8------8------|-8------8------|-7-----7-----|-7-----7---7----|
|----------------|---------------|-8-----------|----------------|
|--9----9------9-|------9------9-|-9---9-----9-|-----9----------|
|-10-10-----10---|---10-----10---|---9-----9---|---9-----9------|
|----------------|---------------|-------------|-7--------------|
|--8-------------|---------------|-0-----------|----------------|


   E E E  E E E    E E E  E E E    E  E E E  E E   E  E E E  E E
|-10-----10-----|-10-----10-----|--9------9------|-9------9---------|
|--0-0------0---|----0------0---|----------------|------------------|
|--9---9------9-|------9------9-|--9----9------9-|------9------9----|
|---------------|---------------|-11-11-----11---|---11-----11------|
|--7------------|---------------|--0-------------|------------------|
|---------------|---------------|----------------|------------------|


   E  E E E  E E   E  E E E  E E   E E E E E E   E E E E E E
|--8------8------|-8------8------|-7-----7-----|-7-----7--------|
|----------------|---------------|-8-----------|-----------8----|
|--9----9------9-|------9------9-|-9---9-----9-|-----9----------|
|-10-10-----10---|---10-----10---|---9-----9---|---9-----9------|
|----------------|---------------|-------------|----------------|
|--8-------------|---------------|-0-----------|----------------|


  E E E E E E   E E E E E E   E E E E E E   E E E Q.
|-5-----5-----|-5-----5-----|-5-----5-----|-5-----5-----|
|-5---5-----5-|-----5-----5-|-----5-----5-|-----5-------|
|-6-6-----6---|---6-----6---|---6-----6---|---6---------|
|-7-----------|-------------|-------------|-------------|
|-------------|-------------|-0-----------|-------------|
|-------------|-------------|-------------|-------------|


              |-3-|     |-3-|
  Q.   Q.     S S S +Q  S S S +Q    E E E E E E   E E E E E E
|-3----2----|-0-2-0-(0)-----------|-2-----2-----|-2-----2--------|
|-----------|-----------3-5-3-(3)-|-----5-----5-|-----5-----5----|
|-2---------|---------------------|---5-----5---|---5-----5------|
|-2---------|---------------------|-------------|----------------|
|-0---------|---------------------|-------------|----------------|
|-----------|---------------------|-2-----------|----------------|


  E E E E E E   E E E E E E   E  E   E  E E E   E E E E E E
|-2-----2-----|-2-----2---2-|-3-(3)-(3)S0-----|-0-----0--------|
|-----5-----5-|-----5---5---|----0--------0---|---0-----0------|
|---5-----5---|---5---------|--------0------0-|-----0-----0----|
|-------------|-------------|-----------------|----------------|
|-------------|-------------|-----------------|----------------|
|-------------|-------------|-0---------------|----------------|


  E E E E E E   H.
|-0-----0-----|-0-----|
|---0-----0---|-------|
|-----0-----0-|-------|
|-------------|-------|
|-------------|-------|
|-------------|-------|


                               |-3--|
  E E E E E E    E E E E E E   S  S S E E E E E   E E E E E E
|-3---0-0---0-|------0-----0-|----------0-----0-|-----0----------|
|-0-0-----0---|-10-----7-----|-8-10-8-----8-----|-8-----8-8-8----|
|-0-----------|--------------|------------------|-------9-9-9----|
|-------------|----9-----9---|--------9-----9---|---9---9-9-9----|
|-------------|--------------|-7----------------|-------7-7-7----|
|-0-----------|--7-----------|------------------|-------0-0-0----|


  E E E E E E    E E E E E E    a  E E E  E E E    Q.   E E E
|-----0-0---0-|------0-----0-|---------0------0-|----------------|
|-8-0-----0---|-10-----7-----|-10S12-----12-----|-12----8-8-8----|
|-9-----------|--------------|------------------|-------9-9-9----|
|-9-----------|----9-----9---|-------9------9---|-------9-9-9----|
|-7-----------|--------------|------------------|-------7-7-7----|
|-0-----------|--7-----------|--0---------------|-------0-0-0----|


                               |-3--|
  E E E E E E    E E E E E E   S  S S E E E E E   E E E E E E
|-----0-0---0-|------0-----0-|----------0-----0-|-----0----------|
|-8-0-----0---|-10-----7-----|-8-10-8-----8-----|-8-----8-8-8----|
|-9-----------|--------------|------------------|-------9-9-9----|
|-9-----------|----9-----9---|--------9-----9---|---9---9-9-9----|
|-7-----------|--------------|-7----------------|-------7-7-7----|
|-0-----------|--7-----------|------------------|-------0-0-0----|


                  |-3--|
   E E E  E E E   S  S S E E E E E   a E E E E E E   E E E E E E
|------0------0-|----------0-0-----|-------0-0---0-|-0---0-0---0----|
|-11-----10-----|-8-10-8-----------|-----0-----0---|---0-----0------|
|--0------------|----------------7-|-7S9-----------|----------------|
|----9------9---|--------9-----9---|---------------|----------------|
|---------------|------------------|---------------|----------------|
|--8------------|-7----------------|-0-------------|----------------|


  E E E E E E   E E E E E E
|-0---0-0---0-|-0---0-0---0----|
|-0-0-----0---|---0-----0------|
|-0-----------|----------------|
|-2-----------|----------------|
|-2-----------|----------------|
|-0-----------|----------------|


   E E  E E  E E    E E  E E  E E    E E  E E  E E    E E  E E  E E
|-10-------------|----------------|-10-------------|-------------------|
|--8-----------8-|-12-----------8-|--------------8-|-12-----------8----|
|----9----9------|----9----9------|----9----9------|----9----9---------|
|------10---10---|------10---10---|------10---10---|------10---10------|
|----------------|----------------|----------------|-------------------|
|--8-------------|----------------|--8-------------|-------------------|


   E E E E E E   E E E E E E    E E E E E E   E E E E E E
|--7-----------|-7-----------|--7-----------|-7--------------|
|--8-----8---8-|-------8---8-|--8-----8---8-|-------8---8----|
|----7---------|---7---------|----7---------|---7------------|
|------9---9---|-----9---9---|------9---9---|-----9---9------|
|-10-----------|-------------|-10-----------|----------------|
|--------------|-------------|--------------|----------------|


   E E  E E  E E    E E  E E  E E    E E  E E  E E    E E  E  E  E E
|-10-------------|----------------|-10-------------|--------------------|
|--8-----------8-|-12-----------8-|--------------8-|-12------10----8----|
|----9----9------|----9----9------|----9----9------|----9---------------|
|------10---10---|------10---10---|------10---10---|------10----10------|
|----------------|----------------|----------------|--------------------|
|--8-------------|----------------|--8-------------|--------------------|


   E E E E E E   E E E E E E    E E E E E E   E E E E E E
|--7-----------|-7-----------|--7-----------|-7--------------|
|--8-----8---8-|-------8---8-|--8-----8---8-|-------8---8----|
|----7---------|---7---------|----7---------|---7------------|
|------9---9---|-----9---9---|------9---9---|-----9---9------|
|-10-----------|-------------|-10-----------|----------------|
|--------------|-------------|--------------|----------------|


  E E E E E E    E E E E E E   E E E E E E    E E E E E E
|-------------|-10-----------|-------------|-10--------------|
|-7-----7---8-|--------7---7-|-7-----7---8-|--------7---7----|
|-7-7---------|----7---------|-7-7---------|----7------------|
|-9---9---9---|------9---9---|-9---9---9---|------9---9------|
|-------------|--------------|-------------|-----------------|
|-7-----------|--------------|-7-----------|-----------------|


   E E E E E E    E E E E E E    E E E E E E    E E E E E E
|--------------|-10-----------|--------------|-10--------------|
|-12-----------|--------------|-12-----------|-----------------|
|--9-9---9---9-|----9---9---9-|--9-9---9---9-|----9---9---9----|
|--9---9---9---|------9---9---|--9---9---9---|------9---9------|
|--------------|--------------|--------------|-----------------|
|--8-----------|--------------|--8-----------|-----------------|


  E E E E E E    E E E E E E   E E E E E E    E E E E E  E
|-------------|-10-----------|-------------|-10---------------|
|-7-----7---8-|--------7---7-|-7-----7---8-|--------7---10----|
|-7-7---------|----7---------|-7-7---------|----7-------------|
|-9---9---9---|------9---9---|-9---9---9---|------9---9-------|
|-------------|--------------|-------------|------------------|
|-7-----------|--------------|-7-----------|------------------|


  E E E E E E    E E E E E E   E E E E E E    E E E  E E E
|-------------|--------------|-------------|------------------|
|-8-----8---8-|-12-----8---8-|-8-----8---8-|-12-----10---8----|
|-9-9---------|----9---------|-9-9---------|----9-------------|
|-9---9---9---|------9---9---|-9---9---9---|------9----9------|
|-------------|--------------|-------------|------------------|
|-8-----------|--------------|-8-----------|------------------|


   E E E E E E   E E E E E E    E E E E E E   H.
|--7-----------|-7-----------|--7-----------|-7-----|
|--8-----8---8-|-------8---8-|--8-----8---8-|-------|
|--7-7---------|---7---------|--7-7---------|-------|
|------9---9---|-----9---9---|------9---9---|-------|
|-10-----------|-------------|-10-----------|-------|
|--------------|-------------|--------------|-------|


                               |-3--|
  E E E E E E    E E E E E E   S  S S E E E E E   E E E E E E
|-3---0-0---0-|------0-----0-|----------0-----0-|-----0----------|
|-0-0-----0---|-10-----7-----|-8-10-8-----8-----|-8-----8-8-8----|
|-0-----------|--------------|------------------|-------9-9-9----|
|-------------|----9-----9---|--------9-----9---|---9---9-9-9----|
|-------------|--------------|-7----------------|-------7-7-7----|
|-0-----------|--7-----------|------------------|-------0-0-0----|


  E E E E E E    E E E E E E    a  E E E  E E E    Q.   E E E
|-----0-0---0-|------0-----0-|---------0------0-|----------------|
|-8-0-----0---|-10-----7-----|-10S12-----12-----|-12----8-8-8----|
|-9-----------|--------------|------------------|-------9-9-9----|
|-9-----------|----9-----9---|-------9------9---|-------9-9-9----|
|-7-----------|--------------|------------------|-------7-7-7----|
|-0-----------|--7-----------|--0---------------|-------0-0-0----|


                               |-3--|
  E E E E E E    E E E E E E   S  S S E E E E E   E E E E E E
|-----0-0---0-|------0-----0-|----------0-----0-|-----0----------|
|-8-0-----0---|-10-----7-----|-8-10-8-----8-----|-8-----8-8-8----|
|-9-----------|--------------|------------------|-------9-9-9----|
|-9-----------|----9-----9---|--------9-----9---|---9---9-9-9----|
|-7-----------|--------------|-7----------------|-------7-7-7----|
|-0-----------|--7-----------|------------------|-------0-0-0----|


                  |-3--|
   E E E  E E E   S  S S E E E E E   a E E E E E E   E E E E E E
|------0------0-|----------0-0-----|-------0-0---0-|-0---0-0---0----|
|-11-----10-----|-8-10-8-----------|-----0-----0---|---0-----0------|
|--0------------|----------------7-|-7S9-----------|----------------|
|----9------9---|--------9-----9---|---------------|----------------|
|---------------|------------------|---------------|----------------|
|--8------------|-7----------------|-0-------------|----------------|


                  |-3--|
   E E E  E E E   S  S S E E E E E   a E E E E E E   E E E E E E
|------0------0-|----------0-0-----|-------0-0---0-|-0---0-0---0----|
|-11-----10-----|-8-10-8-----------|-----0-----0---|---0-----0------|
|--0------------|----------------7-|-7S9-----------|----------------|
|----9------9---|--------9-----9---|---------------|----------------|
|---------------|------------------|---------------|----------------|
|--8------------|-7----------------|-0-------------|----------------|


   E E E  E E E   E E E E E E   E E E E E E   E E E E E E
|------0------0-|-----0-0---0-|-0---0-0---0-|-0---0-0---0----|
|-11-----10-----|-8-----------|-------------|----------------|
|--0------------|-9-----------|-------------|----------------|
|----9------9---|---9-----9---|---9-----9---|---9-----9------|
|---------------|-------------|-------------|----------------|
|--8------------|-7-----------|-------------|----------------|


  E E E E E E   E E E E E E   H.        E E E E E E
|-0---0-0---0-|-0---0-0---0-|-0-------|-0---0-0---0----|
|---0-----0---|---0-----0---|---------|-0-0-----0------|
|-------------|-------------|---------|-0--------------|
|-------------|-------------|---------|-2--------------|
|-------3-----|-------------|---------|-2--------------|
|-------1-----|-------------|---------|-0--------------|


  E E E E E E   E E E E E E   H.        +H.
|-0---0-0---0-|-0---0-0-0-0-|-0-------|-(0)----||
|-0-0-----0---|-0-0---0-0-0-|-0-------|-(0)----||
|-0-----------|-0-----0-0-0-|-0-------|-(0)----||
|-2-----------|-2-----2-2-2-|-2-------|-(2)----||
|-2-----------|-2-----2-2-2-|-2-------|-(2)----||
|-0-----------|-0-----0-0-0-|-0-------|-(0)----||


Duration Legend
---------------
W - whole; H - half; Q - quarter; E - 8th; S - 16th; T - 32nd; X - 64th; a - acciaccatura
+ - note tied to previous; . - note dotted; .. - note double dotted
Uncapitalized letters represent notes that are staccato (1/2 duration)
Irregular groupings are notated above the duration line
Duration letters will always appear directly above the note/fret number it represents the
duration for.  Duration letters with no fret number below them represent rests.  Multi-
bar rests are notated in the form Wxn, where n is the number of bars to rest for.  Low
melody durations appear below the staff

Tablature Legend
----------------
 h   - hammer-on
 p   - pull-off
 b   - bend
 pb  - pre-bend
 r   - bend release (if no number after the r, then release immediately)
 /\  - slide into or out of (from/to "nowhere")
 s   - legato slide
 S   - shift slide
  - natural harmonic
[n]  - artificial harmonic
n(n) - tapped harmonic
 ~   - vibrato
 tr  - trill
 T   - tap
 TP  - trem. picking
 PM  - palm muting
\n/  - tremolo bar dip; n = amount to dip
 \n  - tremolo bar down
 n/  - tremolo bar up
/n\  - tremolo bar inverted dip
 =   - hold bend; also acts as connecting device for hammers/pulls
 <>  - volume swell (louder/softer)
 x   - on rhythm slash represents muted slash
 o   - on rhythm slash represents single note slash

Misc Legend
-----------
 |  - bar
||  - double bar
||o - repeat start
o|| - repeat end
*|  - double bar (ending)
 :  - bar (freetime)
 $  - Segno
 &  - Coda
Tempo markers -  = BPM(8/16=s8/s16), where s8 = swing 8ths, s16 = swing 16ths


***************************************************************************************
* Generated using Power Tab Editor by Brad Larsen - http://powertab.guitarnetwork.org *
***************************************************************************************
Login or Register to remove this ad.

2 comments on Main Theme

Not good for my last of us

5

Not good for my last of us tab, that this got posted directly after :D Either way, epic arranging!

Great tab! Thank you!

5

Great tab! Thank you!