Ads

Main Theme (The Last of Us) Guitar Tab

Submitted: Dec 09, 2012 by N0Stars (Last updated: Dec 09, 2012)

5
Average: 5 (7 votes)
Download | Listen
Game: The Last of Us
Composer(s): Gustavo Santaolalla
Style: Arrangement, Fingerstyle

AutoScroll: Slow | Medium | Fast
The Last of Us - Main Theme

Composed by Gustavo Santaolalla

Arranged for Guitar by N0Stars

Based on a Performance by Gustavo Santaolalla (VGA 2012)

Gtr I (E A D G B E) - 'Untitled'

 6/8
  Gtr I
  E  E E E E  E    E E  E E E  E   E  E E E E E    H.
|-0------0------|----0----0------|-0----------0-|--------|
|------0---0----|-12--------0----|------0---0---|-12-----|
|---12-------12-|-------------12-|---12---9-----|--------|
|---------------|-------9--------|--------------|--------|
|---------------|----------------|--------------|--------|
|-0-------------|----------------|--------------|--------|


                                |-3--|
   E E E E E E    E E E E E E   S  S S E E E E E   E E E E E E
|------0-----0-|------0-----0-|----------0-----0-|-----0-----0----|
|----0-----0---|-10-----7-----|-8-10-8-----8-----|-8-----8--------|
|-12-----9-----|--------------|------------------|----------------|
|--------------|----9-----9---|--------9-----9---|---9-----9------|
|--------------|--------------|-7----------------|----------------|
|--0-----------|--7-----------|------------------|----------------|


   E E E E E E    E E E E E E    a  E E E  E E E    H.
|------0-----0-|------0-----0-|---------0------0-|--------|
|----0-----0---|-10-----7-----|-10S12-----12-----|-12-----|
|-12-----9-----|--------------|------------------|--------|
|--------------|----9-----9---|-------9------9---|--------|
|--------------|--------------|------------------|--------|
|--0-----------|--7-----------|--0---------------|--------|


                                |-3--|
   E E E E E E    E E E E E E   S  S S E E E E E   E E E E E E
|------0-----0-|------0-----0-|----------0-----0-|-----0-----0----|
|----0-----0---|-10-----7-----|-8-10-8-----8-----|-8-----8--------|
|-12-----9-----|--------------|------------------|----------------|
|--------------|----9-----9---|--------9-----9---|---9-----9------|
|--------------|--------------|-7----------------|----------------|
|--0-----------|--7-----------|------------------|----------------|


                  |-3--|
   E E E  E E E   S  S S E E E E E   a E E E E E E   E E E E E E
|------0------0-|----------0-0-----|-------0-0---0-|-0---0-0---0----|
|-11-----10-----|-8-10-8-----------|-----0-----0---|---0-----0------|
|---------------|----------------7-|-7S9-----------|----------------|
|----9------9---|--------9-----9---|---------------|----------------|
|---------------|------------------|---------------|----------------|
|--8------------|-7----------------|-0-------------|----------------|


  E E E E E E   E E E E E E   E  E E E E E
|---5-----5---|---5-----5---|-0----------0-|
|-----0-----0-|-----0-----0-|------0---0---|
|-8-----8-----|-8-----8-----|---12---9-----|
|-------------|-------------|--------------|
|-------------|-------------|--------------|
|-7-----------|-------------|-0------------|


   E E E E E  E   E  E E E E E    H.
|----0---0------|-0----------0-|--------|
|-12-------0----|------0---0---|-12-----|
|------------12-|---12---9-----|--------|
|------9--------|--------------|--------|
|---------------|--------------|--------|
|---------------|--------------|--------|


                                |-3--|
   E E E E E E    E E E E E E   S  S S E E E E E   E E E E E E
|------0-----0-|------0-----0-|----------0-----0-|-----0-----0----|
|----0-----0---|-10-----7-----|-8-10-8-----8-----|-8-----8--------|
|-12-----9-----|--------------|------------------|----------------|
|--------------|----9-----9---|--------9-----9---|---9-----9------|
|-10-----------|--------------|-7----------------|----------------|
|--0-----------|--7-----------|------------------|----------------|


   E E E E E E    E E E E E E    a  E E E  E E E    H.
|------0-----0-|------0-----0-|---------0------0-|--------|
|----0-----0---|-10-----7-----|-10S12-----10-----|-12-----|
|-12-----9-----|--------------|------------------|--------|
|--------------|----9-----9---|-------9------9---|--------|
|-10-----------|--------------|------------------|--------|
|--0-----------|--7-----------|--0---------------|--------|


                                |-3--|
   E E E E E E    E E E E E E   S  S S E E E E E   E E E E E E
|------0-----0-|------0-----0-|----------0-----0-|-----0-----0----|
|----0-----0---|-10-----7-----|-8-10-8-----8-----|-8-----8--------|
|-12-----9-----|--------------|------------------|----------------|
|--------------|----9-----9---|--------9-----9---|---9-----9------|
|-10-----------|--------------|-7----------------|----------------|
|--0-----------|--7-----------|------------------|----------------|


                  |-3--|
   E E E  E E E   S  S S E E E E E   a E E E E E E   E E E E E E
|------0------0-|----------0-0-----|-------0-0---0-|-0---0-0---0----|
|-11-----10-----|-8-10-8-----------|-----0-----0---|---0-----0------|
|--0------------|----------------7-|-7S9-----------|----------------|
|----9------9---|--------9-----9---|---------------|----------------|
|---------------|------------------|---------------|----------------|
|--8------------|-7----------------|-0-------------|-0--------------|


                              H.=H                 Q=100
  E E E E E E   E E E E E E   E  E E E E E   T T T  T  +E   +H     +H.
|---5-----5---|---5-----5---|-0------0---0-|-------12-(12)-(12)-|-(12)----*|
|-----0-----0-|-----0-----0-|------0---0---|--------------------|---------*|
|-8-----8-----|-8-----8-----|---12---------|-9---9--------------|---------*|
|-------------|-------------|--------------|---9----------------|---------*|
|-------------|-------------|--------------|--------------------|---------*|
|-7-----------|-------------|-0------------|--------------------|---------*|


Duration Legend
---------------
W - whole; H - half; Q - quarter; E - 8th; S - 16th; T - 32nd; X - 64th; a - acciaccatura
+ - note tied to previous; . - note dotted; .. - note double dotted
Uncapitalized letters represent notes that are staccato (1/2 duration)
Irregular groupings are notated above the duration line
Duration letters will always appear directly above the note/fret number it represents the
duration for.  Duration letters with no fret number below them represent rests.  Multi-
bar rests are notated in the form Wxn, where n is the number of bars to rest for.  Low
melody durations appear below the staff

Tablature Legend
----------------
 h   - hammer-on
 p   - pull-off
 b   - bend
 pb  - pre-bend
 r   - bend release (if no number after the r, then release immediately)
 /\  - slide into or out of (from/to "nowhere")
 s   - legato slide
 S   - shift slide
  - natural harmonic
[n]  - artificial harmonic
n(n) - tapped harmonic
 ~   - vibrato
 tr  - trill
 T   - tap
 TP  - trem. picking
 PM  - palm muting
\n/  - tremolo bar dip; n = amount to dip
 \n  - tremolo bar down
 n/  - tremolo bar up
/n\  - tremolo bar inverted dip
 =   - hold bend; also acts as connecting device for hammers/pulls
 <>  - volume swell (louder/softer)
 x   - on rhythm slash represents muted slash
 o   - on rhythm slash represents single note slash

Misc Legend
-----------
 |  - bar
||  - double bar
||o - repeat start
o|| - repeat end
*|  - double bar (ending)
 :  - bar (freetime)
 $  - Segno
 &  - Coda
Tempo markers -  = BPM(8/16=s8/s16), where s8 = swing 8ths, s16 = swing 16ths


***************************************************************************************
* Generated using Power Tab Editor by Brad Larsen - http://powertab.guitarnetwork.org *
***************************************************************************************
Login or Register to remove this ad.

2 comments on Main Theme

amazing man

5

amazing man

but really hard

but really hard