Ads

Paradise lost (Laputa: Castle In The Sky) Guitar Tab

Submitted: May 31, 2020 by chimatte (Last updated: Jun 14, 2020)

5
Average: 5 (1 vote)
Download | Listen
Game: Laputa: Castle In The Sky
Composer(s): Joe Hisaishi
Style: Fingerstyle

Click here for a video example.

AutoScroll: Slow | Medium | Fast
                                PARADISE LOST                                   


Traccia 1 (Capo 3)
     Q    Q    Q    Q       H        E  E  E  E     Q.     E  E  E  E  E   
E||----------------------|--3--------2--0--------|------------0-----------|
B||-----------------0----|-----------------3--2--|--3------0-----3--1--0--|
G||----------------------|--0--------------------|------------0--L--L--L--|
D||----------------------|--2--------4--L--L--L--|--4------L--------------|
A||----------------------|-----------1--L--L--L--|--2------L--3--L--L--L--|
D||----------------------|-----------------------|------------------------|


  Q.     E  H           Q.     E  H           W                 
---------------------|---------------------|-------------------|
--0------------------|--1------0--0--------|--L----------------|
--0------2--2--------|--2------L--L--------|--L----------------|
---------------------|--1------L--L--------|--L----------------|
--4------L--L--------|---------------------|-------------------|
---------------------|---------------------|-------------------|


  E  E  E  E  E  Q.        E  E  E  E  E  E  E  E     E  E  E  E  E  E  E  E   
------------------------|--------------------------|--------------------------|
------------------------|--------------------------|--0--L--L--L--L--L-----3--|
--------0---------------|--------0--------------0--|--------0-----------2-----|
--------------4--2------|--------------4-----2-----|--------------4--2--L--L--|
-----2-----2------------|-----2-----2-----2--L--L--|-----2-----2--------------|
--2--L--L--L------------|--2--L--L--L--------------|--2--L--L--L--------------|


  E  E  E  E  E  E  E  E     E  E  E  E  E  Q.        E  E  E  E  E  E  E  E   
--------------------0-----|------------------------|--------------------------|
--L--L--L--L--L--L-----0--|--L--L--L--L--L--L------|--------------------------|
--------2-----0-----------|--------0---------------|--------0--------------0--|
-----0-----0-----4--L--L--|--------------4--2------|--------------4-----2-----|
--------------------------|-----2-----2------------|-----2-----2-----2--L--L--|
--2--L--L--L--------------|--2--L--L--L------------|--2--L--L--L--------------|


  E  E  E  E  E  E  E  E     E  E  E  E  E  E  E  E     E  E  E  E  E  Q.      
--------------------------|-----------------------0--|------------------------|
--0--L--L--L--L--L-----3--|--L--L--L--L-----2--3-----|--0--L--L--L--L--L------|
--------0-----------2-----|--------2-----0-----------|--------0---------------|
--------------4--2--L--L--|-----0-----0-----4--L--L--|--------------4--2------|
-----2-----2--------------|--------------------------|-----2-----2------------|
--2--L--L--L--------------|--2--L--L--L--------------|--2--L--L--L------------|


  E  E  E  E  E  E  E  E     E.  S E  E  E  Q    E     E.  S E  E  E  Q    E   
--------------------------|-------------------------|-------------------------|
--------------------------|--------0--L--L----------|--------0--L--L--L-------|
--------0--------2--0-----|-------------------------|----------------------0--|
--------------4--2--L--4--|--4---2---------------2--|--4---2------------------|
-----2-----2--------------|--3---L-L-----5--3-------|--3-----L-----5--3----L--|
--2--L--L--L--------------|-----------5--L--L-------|-----------5--L--L----L--|


  E  E  E  E  E  Q.        E  E  E  E  E  E  Q       E  E  E  E  E  Q.      
------------------------|--------------------0----|--2--L--L--L--L--L------|
--------3--L--L--L------|--------------3--L-------|------------------------|
--2--L------------------|-------------------------|------------------------|
--------4-----2--0------|--------4-----2--0--L----|--------5--2--4--2------|
-----0-----0------------|-----0-----0-------------|-----2------------------|
--0--L--L--L--L--L------|--0--L--L--L--L--L--L----|--2--L--L--L--L--L------|


  E  E  E  E  E  S S E  E     E  S S E  E  E  Q.        E  E  E  E  E  E  Q     
--------------5--L-3-L--2--|--2--L-3-0--L--L---------|--------0-----------0----|
-----------0---------------|---------------3--1------|--------------3--L-------|
--------0------------------|-----0-L-L--0------------|-----0-----0-------------|
--------------4--2-L-L--L--|-------------------------|--------------0----------|
-----2-----2---------------|--3--L-L-L--L--L--L------|--3--L--L--L-----3--L----|
--2--L--L--L---------------|-------------------------|-------------------------|


  E  E  E  E  E  Q.        E  E  E  E  E  S S E  E     S  S E  E  E  E  Q.      
--2--L--L--L--L--L------|--------------5--L-3-L--2--|--2h-3-0--0---------------|
------------------------|-----------0---------------|----------------3--1------|
------------------------|--------0------------------|-------0-----0------------|
--------5-----4--2------|--------------4--2-L-L--L--|--------------------------|
-----2-----2------------|-----2-----2---------------|--3--L-L--L--L--L--L------|
--2--L--L--L--L--L------|--2--L--L--L---------------|--------------------------|


  E  E  E  E  E  E  E  E     E  Q    E  E  E  E  E     E  Q    E  E  E  E  E   
--------0--------3--2--0--|-------------------------|-------------------------|
--------------3--1--L--L--|--3--L-------3--L--1--0--|--1--L-------1--L--0-----|
-----0-----0--------------|----------0--------0--L--|----------------------2--|
--------------------------|-----0----L-----0--------|----------3--------3--L--|
--3--L--L--3--------------|--2--L----L--2--L--------|-----3----L-----3--------|
--------------------------|-------------------------|--3--L----L--3--L--------|


  E  E  E  E  E  Q.        E  E  E  E  E  Q.        E  E  E  E  E  E  E  E   
------------------------|------------------------|--------------------------|
--0--L--L--L--L--L------|------------------------|-----------------------1--|
--------------2---------|--------------1---------|--------------1-----2-----|
--------2--------2------|--------2--------2------|--------2--------2--L--L--|
-----2-----2------------|-----2-----2------------|-----2-----2--------------|
--2--L--L--L--L--L------|--2--L--L--L------------|--2--L--L--L--------------|


  E  E  E  E  E  E  E  E     E  E  E  E  E  E  E  E     E  E  E  E  E  Q.      
--0--L--L--L--L--L-----3--|--L--L--L--L--L--L--5--0--|--L--L--L--L--L--L------|
--------1-----0-----3-----|--------0-----------------|--------1-----0---------|
-----------------2--L--L--|--------------2--0--L--L--|-----------------2------|
-----2-----2--------------|-----0-----0--------------|-----2-----2------------|
--0--L--L--L--L--L--L--L--|--0--L--L--L--L--L--L--L--|--0--L--L--L--L--L------|
--------------------------|--------------------------|------------------------|


  E  E  E  E  E  E  E  E     E  E  E  E  E  E  E  E   
--------------------------|--0--L--L--L--L--L-----3--|
--------1-----0--------1--|--------1-----0-----3-----|
--------------------2-----|-----------------2--L--L--|
-----2-----2-----2--L--L--|-----2-----2--------------|
--0--L--L--L--L--L--L--L--|--0--L--L--L--L--L--L--L--|
--------------------------|--------------------------|


  E  E  E  E  E  E  E  E     E  E  E  E  E  Q.        E  E  E  E  E  E  E  E   
--L--L--L--L-----2--3--5--|--0--L--L--L--L--L------|--------------------------|
--------0-----------------|--------1-----0---------|--------1-----0--3--1--0--|
--------------2--0--L--L--|-----------------2------|-----------------2--L--L--|
-----0-----0--------------|-----2-----2------------|-----2-----2--------------|
--0--L--L--L--L--L--L--L--|--0--L--L--L--L--L------|--0--L--L--L--L--L--0--L--|
--------------------------|------------------------|--------------------------|


  E  S S E  E  E  Q    E     E  S S E  E  E  Q    E     E  E  E  E  E  Q.      
---------0--L--L--L-------|---------0--L--L--L-------|--------3--L--L--L------|
--0--L--------------------|--0--L-----------------1--|--3--L--0---------------|
-------2-------0-------2--|-------2-------0----------|--------------2--0------|
---------3--------3----L--|---------3--------3----L--|-----0-----0------------|
-----3-L----3--L--L----L--|-----3-L-L--3--L--L----L--|------------------------|
--3--L-L-L--L--L--L----L--|--3--L-L-3--L--L--L----L--|--5--L--L--L--L--L------|


  E  E  E  E  E  Q.        W                  
------------------------|-------------------||
--------0---------------|--0----------------||
--------------2--0------|--0----------------||
-----0-----0------------|--2----------------||
------------------------|--0----------------||
--5--L--L--L--L--L------|-------------------||




Duration Legend
---------------
W - whole
H - half
Q - quarter
E - 8th
S - 16th
T - 32nd
X - 64th
. - note dotted
|-n-|  - n-tuplets


Tablature Legend
----------------
L - tied note
x - dead note
g - grace note
(n) - ghost note
> - accentuded note
NH - natural harmonic
AH - artificial harmonic
TH - tapped harmonic
SH - semi harmonic
PH - pitch harmonic
h - hammer on
p - pull off
b - bend
br - bendRelease
pb - preBend
pbr - preBendRelease
brb - bendReleaseBend
\n/ - tremolo bar dip
\n - tremolo bar dive
-/n - tremolo bar Release up
/n\ - tremolo bar inverted dip
/n - tremolo bar return
-\n - tremolo bar Release down
S - shift slide
s - legato slide
/ -  slide into from below or out of upwards
\ -  slide into from above or out of downwards
~ - vibrato
W - wide vibrato
tr - trill
TP - tremolo picking
T - tapping
S - slap
P - pop
< - fade in
^ - brush up
v - brush down
Login or Register to remove this ad.