Ads

Carrying You (Laputa: Castle In The Sky) Guitar Tab

Submitted: Nov 28, 2013 by Basisti94 (Last updated: Dec 15, 2013)

5
Average: 5 (16 votes)
Download | Listen
Game: Laputa: Castle In The Sky
Composer(s): Joe Hisaishi
Style: Arrangement, Fingerstyle

This song is also called Kimi Wo Nosete, Innocence, Ending Theme

AutoScroll: Slow | Medium | Fast
                         Carrying You / Kimi Wo Nosete


Laputa: Castle In The Sky
Joe Hisaishi
Azumi Inoue
Guitar arrangement by Basisti94 (Miro Laaksonen)
28.11.2013

-------------------------------
Ending theme of the movie. 
I skipped that minute long intro as it's very separated from the 
rest of the song and in completelydifferent key. 
I'm not planning to, but I can arrange the image album 
version of it, Koufu, if someone wants me to.
-------------------------------


Tempo ~ 116 
                           ^                      ^                    
     H.           E  E     Q.     E  Q    Q       Q.     E  Q    Q     
E||---------------0--2--|--3------2--3----7----|--2-------------------|
B||---------------------|--0-------------------|--3--------------0----|
G||---------------------|--0-------------------|--4-------------------|
D||---------------------|----------------------|--0------0--0---------|
A||---------------------|----------------------|----------------------|
E||---------------------|--0-------------------|----------------------|


  ^                      ^                       ^                    
  Q.     E  Q    Q       Q.     E  Q    E  E     Q.     E  E  Q.      
--0---------0----3----|-----------------------|---------------3------|
---------3------------|--3--------------0--0--|--1------0--1---------|
--0-------------------|--0--------------------|--2-------------------|
--2-------------------|--0--------------------|--2-------------------|
--3-------------------|--2------2--2----------|--0-------------------|
----------------------|-----------------------|----------------------|


  ^                        ^                      ^                     
  Q.     E  E  E  E  E     Q.     E  Q    Q       Q.     E  Q    E  E   
---------------3--3--3--|--2--------------2----|--2-----------------2--|
--0---------------------|---------2--2---------|--4--------------5-----|
--0---------------------|--3-------------------|--2--------------------|
--2---------------------|--2-------------------|--4--------------------|
------------------------|--4-------------------|--2------2--2----------|
--3------3--3-----------|--2-------------------|-----------------------|


  ^                       ^                       ^                     
  Q.     E  E  E  Q       Q.     E  Q    E  E     Q.     E  E  E  Q     
--3------2--3-----7----|--2--------------------|--0---------0-----3----|
--0------------0-------|--3--------------0--0--|---------3-------------|
--0--------------------|--4--------------------|--0------------0-------|
-----------------------|--0------0--0----------|--2--------------------|
-----------------------|-----------------------|--3--------------------|
--0--------------------|-----------------------|-----------------------|


  ^                      ^                      ^                         
                                                |----3----|               
  Q.     E  Q.     E     Q    E  Q.     Q       Q    Q    Q    Q    Q     
----------------------|-------3--2------3----|--5----5----7--------------|
--3----------------0--|--1-------------------|--0--------------8---------|
--0-------------------|--2-------------------|--0------------------------|
--0-------------------|--2-------------------|---------------------------|
--2------2--2---------|--0-------------------|--7-------------------2----|
----------------------|----------------------|---------------------------|


  ^                        ^                       ^                     
  E  E  E  E  Q    Q       Q.     E  Q    E  E     Q.     E  Q     Q     
--3--2--0--0--2---------|--0--------------3--5--|--7------5--7----10----|
--1----------------4----|--0--------------------|--0--------------------|
--2---------------------|--0--------------------|--0--------------------|
------------------------|--2------2--2----------|--0--------------------|
--0---------------------|-----------------------|-----------------------|
------------------------|-----------------------|--3--------------------|


  ^                       ^                       ^                    
  Q.     E  Q    E  E     Q.     E  E  E  Q       Q.     E  Q    Q     
--5--------------------|--3------2--3-----7----|--7-------------------|
--3--------------3--3--|--0------------0-------|--7-------------------|
--2--------------------|--0--------------------|--7-------------------|
--4------4--4----------|-----------------------|--0------0--0---------|
-----------------------|-----------------------|----------------------|
-----------------------|--0--------------------|-----------------7----|


  ^          ^              ^                       ^                    
  E  E  Q    E  E  E  E     Q.     E  Q    E  E     Q    Q    Q    Q     
--0--2--3----2--3--5--5--|--3--------------------|--8----7----5----3----|
-------------3-----------|--0------3--3----------|--5-------------------|
--0----------------------|--0--------------------|--5-------------------|
-------------------------|--0--------------------|----------------------|
--3----------3-----------|--2---------2----3--2--|--0---------3---------|
-------------------------|-----------------------|----------------------|


  Q.     Q    E  E  E     Q    Q    Q    Q        E  E  E   E   E  E  E   E   
--7--------------------|-----------------7----|--12--------12--10--------10--|
-----------------------|----------------------|---------0-------------0------|
-----------------------|----------------------|------0-------------0---------|
--------------------9--|----------------------|------------------------------|
--------------7--9-----|-----------------6----|---7-------------7------------|
--7------7-------------|--7----7----9---------|------------------------------|


  E  E  E  E  E  E  E  E     E  E  E  E  E   Q    E     E  E  E  E  E  E  Q     
--7--5--3--------------3--|--5-----3--5--L--10-------|--7-----------------7----|
--------------------------|--------------------------|-----------------0-------|
--------------------4-----|-----2--------------------|--------0----------------|
-----------------5--------|--0-----------0--------0--|-----0-------------------|
--3--------3--3-----------|--------------------------|-------------------------|
--------------------------|--------------------------|--3--------3--2----------|


   E  E  E   E   E  E  E   E     E  E  E  E  E  E  E  E   
--12--------12--10--------10--|--7--5--3--------------3--|
---------0-------------0------|--------------------------|
------0-------------0---------|--------------------4-----|
------------------------------|-----------------5--------|
------------------------------|--3--------3--3-----------|
---0-------------0------------|--------------------------|


                           ^                                                
  E  E  E  E  Q    Q       Q.     E  Q    E  E     E  E  E  E  E  E  E  E   
--5-----3--5--L----2----|--0--------------0--2--|--3--------2--3-----7-----|
------------------------|--0--------------------|--------0--------0--------|
-----2------------------|--0--------------------|-----0-----------------0--|
--0-----------0---------|--2------2--2----------|--------------------------|
------------------------|-----------------------|--------------------------|
------------------------|-----------------------|--0-----------------------|


  E  E  E  E  E  E  E  E     E  E  E  E  E  E  E  E   
--2-----------------------|--0-----------0-----3-----|
--------3-----------0--0--|-----------3--------------|
-----4-----4--------------|--------0--------0--------|
--0--------------0--------|-----2-----------------2--|
--------------2-----------|--3-----------------------|
--------------------------|--------------------------|


  E  E  E  E  E  E  E  E     E  E  E  E  E  E  E  E   
--------------------------|-----------------3--------|
--3-----------------0--0--|--1--------0--1-----------|
--------0-----------------|--------2-----------2-----|
-----0-----0-----0--------|-----2-----------------2--|
--2-----------2-----------|--0-----------------------|
--------------------------|--------------------------|


  E  E  E  E  E  E  E  E     E  E  E  E  E  E  E  E   
-----------------3--3--3--|--2-----------------2-----|
--0-----------------------|-----------2--2-----------|
--------0-----0-----------|-----------------3--------|
-----2-----2--------2-----|--------2--------------2--|
--------------------------|-----4--------------------|
--3-----------------------|--2-----------------------|


  E  E  E  E  E  E  E  E     E  E  E  E  E  E  E  E     E  E  E  E  E  E  Q     
--2--------------------2--|--3--------2--3-----7-----|--2----------------------|
-----------4--------5-----|--------0--------0--------|--------3-----------0----|
--------2-----2-----------|-----0-----------------0--|-----4-----4-------------|
-----4-----------4--------|--------------------------|--0--------------0-------|
--2-----------------------|--------------------------|--------------2----------|
--------------------------|--0-----------------------|-------------------------|


  E  E  E  E  E  E  E  E     E  E  E  E  E  E  E  E     E  E  E  E  E  E  Q     
--0-----------0-----3-----|--------------------------|--------3--2--------3----|
-----------3--------------|--3--------------------0--|--1----------------------|
--------0--------0--------|--------0-----------0-----|--------------2----------|
-----2-----------------2--|-----0-----0-----0--------|-----2-----------2-------|
--3-----------------------|--2-----------2-----------|--0----------------------|
--------------------------|--------------------------|-------------------------|


  E  E  E  E  E  E  Q       E  E  E  E  Q    Q       E  E  E  E  E  E  S S S S  
--5-----7--3-------------|--3--2--0--0--2---------|--0-----------------0-2-3-5-|
-------------------------|-------------------4----|-----------0----------------|
-----0--------0----------|------------------------|--------0-----0-------------|
-----------------2-------|------------------------|-----2-----------2----------|
--------------------2----|--0-----------2---------|----------------------------|
--0----------------------|------------------------|--0-------------------------|


                           |-----3----|     |-----3----|     
  Q.     Q    E  E  E      Q     Q    Q     Q     Q    Q     
--7--------------------|--------10----8---------------------|
--------------------0--|--12---------------12----10----8----|
--0--------------0-----|------------------------------------|
-----------------------|------------------------------------|
--3------3----7--------|------------------------------------|
-----------------------|---8----------------8---------------|


  Q.     Q    E  E  E     E  E  E  E  E  E  S S S S    Q.     Q    E  E  E   
-----------------------|--------------------0-2-3-5-|--7--------------------|
--3-----------------0--|-----------0----------------|--------------------0--|
-----------------0-----|--------0-----0-------------|--0--------------0-----|
--------------0--------|-----0-----------0----------|-----------------------|
--2------2-------------|--2-------------------------|--3------3----7--------|
-----------------------|----------------------------|-----------------------|


   |-----3----|     |-----3----|                             
   Q     Q    Q     Q     Q    Q       Q.     Q    E  E  E   
--------10----8---------------------|--5--------------------|
--12---------------12----10----8----|--------------------7--|
------------------------------------|-----------------7-----|
------------------------------------|--------------7--------|
------------------------------------|--5------5-------------|
---8----------------8---------------|-----------------------|


  Q.     E  Q    Q        E  E  E   E   E  E  E   E   
--L-------------------|--12--------12--10--------10--|
-----------------0----|---------0-------------0------|
----------------------|------0-------------0---------|
----------------------|------------------------------|
--5------5--6---------|---7-------------7------------|
-----------------7----|------------------------------|


  E  E  E  E  E  E  E  E     E  E  E  E  E   Q    E     E  E  E  E  E  E  Q     
--7--5--3--------------3--|--5-----3--5--L--10-------|--7-----------------7----|
--------------------------|--------------------------|-----------------0-------|
--------------------4-----|-----2--------------------|--------0----------------|
-----------------5--------|--0-----------0--------0--|-----0-------------------|
--3--------3--3-----------|--------------------------|-------------------------|
--------------------------|--------------------------|--3--------3--2----------|


   E  E  E   E   E  E  E   E     E  E  E  E  E  E  E  E   
--12--------12--10--------10--|--7--5--3--------------3--|
---------0-------------0------|--------------------------|
------0-------------0---------|--------------------4-----|
------------------------------|-----------------5--------|
------------------------------|--3--------3--3-----------|
---0-------------0------------|--------------------------|


                           ^                                                
  E  E  E  E  Q    Q       Q.     E  Q    E  E     E  E  E  E  E  E  E  E   
--5-----3--5--L----2----|--0--------------0--2--|--3--------2--3-----7-----|
------------------------|--0--------------------|--------0--------0--------|
-----2------------------|--0--------------------|-----0-----------------0--|
--0-----------0---------|--2------2--2----------|--------------------------|
------------------------|-----------------------|--------------------------|
------------------------|-----------------------|--0-----------------------|


  E  E  E  E  E  E  E  E     E  E  E  E  E  E  E  E   
--2-----------------------|--0-----------0-----3-----|
--------3-----------0--0--|-----------3--------------|
-----4-----4--------------|--------0--------0--------|
--0--------------0--------|-----2-----------------2--|
--------------2-----------|--3-----------------------|
--------------------------|--------------------------|


  E  E  E  E  E  E  E  E     E  E  E  E  E  E  E  E   
--------------------------|-----------------3--------|
--3-----------------0--0--|--1--------0--1-----------|
--------0-----------------|--------2-----------2-----|
-----0-----0-----0--------|-----2-----------------2--|
--2-----------2-----------|--0-----------------------|
--------------------------|--------------------------|


  E  E  E  E  E  E  E  E     E  E  E  E  E  E  E  E   
-----------------3--3--3--|--2-----------------2-----|
--0-----------------------|-----------2--2-----------|
--------0-----0-----------|-----------------3--------|
-----2-----2--------2-----|--------2--------------2--|
--------------------------|-----4--------------------|
--3-----------------------|--2-----------------------|


  E  E  E  E  E  E  E  E     E  E  E  E  E  E  E  E     E  E  E  E  E  E  Q     
--2--------------------2--|--3--------2--3-----7-----|--2----------------------|
-----------4--------5-----|--------0--------0--------|--------3-----------0----|
--------2-----2-----------|-----0-----------------0--|-----4-----4-------------|
-----4-----------4--------|--------------------------|--0--------------0-------|
--2-----------------------|--------------------------|--------------2----------|
--------------------------|--0-----------------------|-------------------------|


  E  E  E  E  E  E  E  E     E  E  E  E  E  E  E  E     E  E  E  E  E  E  Q     
--0-----------0-----3-----|--------------------------|--------3--2--------3----|
-----------3--------------|--3--------------------0--|--1----------------------|
--------0--------0--------|--------0-----------0-----|--------------2----------|
-----2-----------------2--|-----0-----0-----0--------|-----2-----------2-------|
--3-----------------------|--2-----------2-----------|--0----------------------|
--------------------------|--------------------------|-------------------------|


                                                     ^                     
  E  E  E  E  E  E  Q       E  E  E  E  Q    Q       Q.     E  Q    E  E   
--5-----7--3-------------|--3--2--0--0--2---------|--0--------------0--1--|
-------------------------|-------------------4----|--0--------------0--1--|
-----0--------0----------|------------------------|--0--------------0--2--|
-----------------2-------|------------------------|--2------2--2----------|
--------------------2----|--0-----------2---------|-----------------------|
--0----------------------|------------------------|-----------------0--0--|


  Q    Q    Q    E  E     Q    Q    Q    E  E     Q    Q    Q    Q     
--L--------------1--3--|--L--------------3--5--|--L-------------------|
--L--------------1--3--|--L--------------3--6--|--L-------------------|
--L--------------2--4--|--L--------------4--5--|--L-------------------|
-----------------------|-----------------------|----------------------|
-----------------------|-----------------------|----------------------|
--L----0----0----0--0--|--L----0----0----0--0--|--L----0----0----0----|


                             ^                                            
  E  E  E  E  E  E  E  E     W                   E  E  E  E  E  E  E  E   
--------------------------|--5----------------|--------------5-----------|
--------------6-----------|--5----------------|-----------5-----5--------|
-----------5-----5--------|--6----------------|--------6-----------6-----|
--------7-----------7-----|-------------------|-----7-----------------7--|
-----8-----------------8--|--0----------------|--0-----------------------|
--0-----0-----0-----0-----|-------------------|--------------------------|


  W                                           
--5----------------|-------------------|----||
--5----------------|-------------------|----||
--6----------------|-------------------|----||
--7----------------|-------------------|----||
--0----------------|-------------------|----||
-------------------|-------------------|----||




Duration Legend
---------------
W - whole
H - half
Q - quarter
E - 8th
S - 16th
T - 32nd
X - 64th
. - note dotted
|-n-|  - n-tuplets


Tablature Legend
----------------
L - tied note
x - dead note
g - grace note
(n) - ghost note
> - accentuded note
NH - natural harmonic
AH - artificial harmonic
TH - tapped harmonic
SH - semi harmonic
PH - pitch harmonic
h - hammer on
p - pull off
b - bend
S - shift slide
s - legato slide
/ -  slide into from below or out of upwards
\ -  slide into from above or out of downwards
~ - vibrato
W - wide vibrato
tr - trill
TP - tremolo picking
T - tapping
S - slap
P - pop
< - fade in
^ - brush up
v - brush down
Login or Register to remove this ad.

5 comments on Carrying You

Yeah! New tabs!

5

A great arrangement of a great song.

Wow! This tab is awesome!

This tab is great!! congratulations!

H. E E Q.

H. E E Q. E Q Q Q. E Q Q
E||---------------0--2--|--3------2--3----5----|--2-------------------|
B||---------------------|--0-------------------|--3--------------0----|
G||---------------------|--0-------------------|--4-------------------|
D||---------------------|----------------------|--0------0--0---------|
A||---------------------|----------------------|----------------------|
E||---------------------|--0-------------------|----------------------|

the 7 should be a 5 as it sounds better

Sorry but I'm completely

Sorry but I'm completely certain that that's wrong. That note is B, not A.

)

5

I love gametabs!! Thank you for putting this on here!