Ads

Lagoon Castle (Lagoon) Guitar Tab

Submitted: Jan 22, 2011 by BacardiBreezer

5
Average: 5 (1 vote)
Download | Listen
Game: Lagoon
Composer(s): Unknown
Style: Transcription

AutoScroll: Slow | Medium | Fast
Master of Water/Lagoon Castle
Lagoon
Composer: Hideki Suzuki
Tabbed by: Bacardibreezer
1/20/11

e|----------------------------------------------------------------------|
B|------12---10-12-10---8--7--8--10-------12---10-12-10--8-------8-7----|
G|--9---------------------------------9------------------------9--------|
D|----------------------------------------------------------10----------|
A|----------------------------------------------------------------------|
E|----------------------------------------------------------------------| 

	e|---------------------------|
	B|-------7--10-10--8-10--12--|
	G|-----8---------------------|
	D|--9------------------------|
	A|---------------------------|
	E|---------------------------|
						
							x2

e|----------------------------------------------------------------------|
B|--13--------10-12----13--------10-12----13--------10-12---15--12--15--|
G|------12-12--------------12-12--------------12-12---------------------|
D|----------------------------------------------------------------------|
A|----------------------------------------------------------------------|
E|----------------------------------------------------------------------| x2
Login or Register to remove this ad.

3 comments on Lagoon Castle

Effing Amazing man! Effing

5

Effing Amazing man! Effing Loved it!

Thanks, I am female though :P

Thanks, I am female though :P

xD

haha sorry Effing Awezome Girl! :3