Ads

Desperate Dreams (Lagoon) Guitar Tab

Submitted: Feb 26, 2016 by BacardiBreezer

0
Download | Listen
Game: Lagoon
Composer(s): Unknown
Style: Alternate picking, Transcription

AutoScroll: Slow | Medium | Fast
Desperate Dreams
Lagoon
Composer: Hideki Suzuki
Tabbed by BB
11/15/15

Wait 2 measures, intro sounds better palm muted

e|-----|-----------|-----------|------------------------------|-----------|-----------|-----------|-----------|-------------|
B|-----|-----------|-----------|------------------------------|-----------|-----------|-----------|-----------|-------------|
G|-----|-----------|-----------|------------------------------|-----------|-----------|-----------|-----------|-------------|
D|-----|-----------|-----------|------------------------------|-----------|-----------|-----------|-----------|-------------|
A|-----|-----------|-----------|-----2------1-------------0---|-----------|-----------|-----------|--2-----1--|-------------|
E|--0--|---0---0---|---0---0---|-------------------2----------|-----0-----|---0---0---|---0---0---|-----------|-0-0-0-0-0-0-|

Lead

e|----12-----|----------------------|----12-----|----------7---|----7--7----|
B|-------12--|--10---------8--------|-------12--|--10------8---|----8--8----|
G|--9--------|--------9-------------|--9--------|------9-------|------------|
D|-----------|-------------------9--|-----------|--------------|------------|
A|-----------|----------------------|-----------|--------------|------------|
E|-----------|----------------------|-----------|--------------|------------|

e|-------------------------------|---------------------------|
B|------------9-10-12----9-------|------------8--------------|
G|--9----9-10---------10---9-10--|---9---10-------------7~---|
D|-------------------------------|---------------------------|
A|-------------------------------|---------------------------|
E|-------------------------------|---------------------------|

e|---------7------------|--------------------------|
B|-----------10----9----|-------9-10-12----9-------|
G|--7-9-10------10---9--|--9-10---------10---9-10--|
D|----------------------|--------------------------|
A|----------------------|--------------------------|
E|----------------------|--------------------------|

e|--13------------------10-----|------------------------------------------10---|
B|-----13--------12--------10--|----------9-10-12-10----------------10-12------|
G|------------12---------------|-----9-10------------9------------9------------|
D|-----------------------------|--12----------------------9-10-12--------------|
A|-----------------------------|-----------------------12----------------------|
E|-----------------------------|-----------------------------------------------|

e|----------------------------------|
B|----------------------------------|
G|--4-4---4-4---4-4---4-4---7---9---|
D|--2-2---2-2---2-2---2-2---5---7---|
A|----------------------------------|
E|----------------------------------| x4
Login or Register to remove this ad.