Ads

LA-MULANA (La-Mulana) Guitar Tab

Submitted: Nov 21, 2021 by Omnicide (Last updated: Nov 24, 2021)

5
Average: 5 (1 vote)
Download | Listen
Game: La-Mulana
Style: Arrangement, Fingerstyle

This song is also called Main Theme

AutoScroll: Slow | Medium | Fast
LA-MULANA   
La-Mulana                                  
Composed by Takumi Naramura
Arranged by William Geesdorf


Playing instructions: Play to the end of the measure marked Da Segno. Go back to the measure marked "Segno" and play to the end.


     E  H.           E     E  H.           E     E  E  E  E  E  E  E  E   
E||---------------------|---------------------|--0--------9--0--------9--|
B||---------------------|---------------------|-----7--8--------7--8-----|
G||---------------------|--0------------------|--------------------------|
D||--4------------------|--1------------------|--------------------------|
A||--5------------------|---------------------|--------------------------|
E||--2--2------------L--|--2--2------------L--|--0-----------------------|


            \3         "Segno"                                             
  H         H             E  E  E  Q.     Q       Q    E  Q.     Q     
---------------------||------------------------|--0-------------------|
--7~--------L--------||---------3--2------3----|-------3--2------0----|
--8~--------L--------||*--4--4-----------------|----------------------|
---------------------||*--4--------------------|----------------------|
---------------------||---2--------------------|--2-------------------|
---------------------||------------------------|----------------------|


  E  E  E  Q.     Q       Q    E  E  Q    Q       E  E  E  Q    Q    E   
-----------------------|--0-------0-------2----|--4--3------------------|
--0--0--3--2------3----|-------3---------------|--------6--3----6----5--|
--0--------------------|-----------------------|---------------------6--|
-----------------------|-----------------------|--0---------------------|
--2--------------------|--2----------4---------|------------------------|
-----------------------|-----------------------|------------------------|


  E  Q    Q    Q.        E  E  E  Q    Q    E     E  Q    Q    Q.        
----------------------|--4--3------------------|-----------------------||
-----6----5----6------|--------6--3----6----5--|-----6----5----6-------||
-----7----6----7------|---------------------6--|-----7----6----7------*||
--0-------------------|--0---------------------|--0-------------------*||
----------------------|------------------------|-----------------------||
----------------------|------------------------|-----------------------||


  H        E  E  E  E     W                   H        E  E  E  E   
-----------------------|-------------------|-----------------------|
--------------------3--|-------------------|--2--------L--3--2-----|
--4--------L-----4-----|-------------------|--2--------L--------2--|
--4--------L--4--------|-------------------|-----------------------|
--2--------L-----------|--2----------------|--4--------L-----------|
-----------------------|-------------------|-----------------------|


  H        H           H        Q    E  E     H        H         
--------------------|----------------------|--------------------|
--------------------|----------------------|--------------------|
-----------0--------|----------------0--2--|--------------------|
-----------2--------|--4--------L----------|-----------0--------|
--4-----------------|--4--------L----------|--------------------|
-----------0--------|--2--------L----------|--2-----------------|

                                   Da Segno
  H        Q    E  E     H        H           W                 
----------------------|--------------------|-------------------|
----------------1--2--|--4-----------------|-------------------|
--3--------L----------|--3--------5--------|--4----------------|
--3--------L----------|--4--------5--------|--4----------------|
--1--------L----------|-----------3--------|--2----------------|
----------------------|--------------------|-------------------|


  W                  
-------------------||
-------------------||
--L----------------||
--L----------------||
--L----------------||
-------------------||




Duration Legend
---------------
W - whole
H - half
Q - quarter
E - 8th
S - 16th
T - 32nd
X - 64th
. - note dotted
|-n-|  - n-tuplets


Tablature Legend
----------------
L - tied note
\n - tremolo bar dive
\ -  slide into from above or out of downwards
~ - vibrato
Login or Register to remove this ad.