Login or Register to remove this ad.

Heikousen (Kuzu no Honkai) Guitar Tab

Submitted: Aug 11, 2017 by Ttegdap

5
Average: 5 (1 vote)
Download | Listen
Game: Kuzu no Honkai
Composer(s): Masaru Yokoyama
Style: Arrangement, Fingerstyle, Natural harmonics

This song is also called Parallel Line

AutoScroll: Slow | Medium | Fast
                                     Heikousen

     ^                      ^                                           
     Q    Q    Q    Q       Q    Q    H           Q    Q     Q    Q     
E||--0---------7---------|--5------------------|------------10----7----|
B||--0--------------0----|--5---------5--------|-------8---------------|
G||--0---------0---------|--5------------------|-------0----------7----|
D||--2----2--------------|--5----5-------------|--0----------7---------|
A||--2-------------------|--3------------------|-----------------------|
E||--0-------------------|---------------------|-----------------------|


                        ^                      ^                   
  Q    Q    H           Q    Q    Q    Q       Q    Q    H         
------------5--------|--0---------2---------|--3---------7--------|
------------3--------|--0--------------0----|--1------------------|
---------------------|--0---------0---------|--0---------0--------|
---------------------|--2----2--------------|--2----2-------------|
---------------------|--2-------------------|--3------------------|
--3----3-------------|--0-------------------|---------------------|


                          ^                                            
  Q    Q    Q    E  E     Q    Q    Q    Q       Q    Q    E  E  Q     
--5--------------3--5--|--7----5----3----2----|--0---------5--7-------|
-----------------------|--0---------0---------|--0---------------0----|
-------0----2----------|--0-------------------|--0---------0----------|
--0--------------------|--0----0--------------|--2----2---------------|
-----------------------|----------------------|--2--------------------|
-----------------------|--3-------------------|--0--------------------|


  Q    Q    Q     E    E      H        H            Q    Q    Q    Q     
--5--------------10S--12--|--10-----------------|--10----8----7----5----|
--5-----------------------|---7-----------------|---0---------0---------|
--5---------5-------------|---7--------7--------|---0----0---------0----|
--5----5------------------|---0-----------------|-----------------------|
--3-----------------------|---------------------|-----------------------|
--------------------------|---------------------|-----------------------|


  Q    Q    Q    Q       Q    Q    E  E  Q       W                 
--3-------------------|------------5--7-------|--5----------------|
----------------------|--1---------5----------|--3----------------|
------------0---------|-------0----------5----|--2----------------|
-------2---------2----|-----------------------|--0----------------|
--3-------------------|-----------------------|-------------------|
----------------------|-----------------------|-------------------|


   W                    W                    W                 
--10----------------|--14----------------|--15----------------|
--------------------|--------------------|--------------------|
--------------------|--------------------|--------------------|
--------------------|--------------------|--------------------|
--------------------|--------------------|--------------------|
--------------------|--------------------|--------------------|


  Q    Q    Q    Q       Q    Q    Q    Q       Q    Q    Q    Q     
--0---------5----7----|--5--------------3----|--2----3----5---------|
----------------------|----------------------|------------3----3----|
------------0---------|------------0---------|-------2--------------|
----------------------|-------2--------------|--0-------------------|
-------2--------------|--3-------------------|----------------------|
--0-------------------|----------------------|----------------------|


  Q    Q    H           E  E  Q    H           Q    Q    E   E  Q     
---------------------|-----0-------2--------|--3---------5S--7--5----|
--3------------------|--3-------------------|------------------------|
------------0--------|-------------0--------|------------0-----------|
-------0-------------|----------------------|-------2----------------|
---------------------|--------2-------------|--3---------------------|
--3------------------|--0-------------------|------------------------|


  Q    Q    Q.     E      Q    Q    Q.     E     Q    Q    Q    Q     
-------3----5------5S--|--7-------------------|--0---------5----7----|
------------3----------|-------------------3--|----------------------|
-------2---------------|------------0---------|------------0---------|
--0--------------------|-------0--------------|----------------------|
-----------------------|----------------------|-------2--------------|
-----------------------|--3-------------------|--0-------------------|


  Q    Q    Q    Q       Q    Q    Q    Q       Q    Q    Q    Q     
--5----3----2----3----|-------0----2----3----|--5----3----2----3----|
----------------------|--3---------3---------|----------------------|
------------0---------|-------2--------------|------------0---------|
-------2--------------|--0-------------------|-------0--------------|
--3-------------------|----------------------|----------------------|
----------------------|----------------------|--3-------------------|


  Q    Q    H           H        Q     Q       Q    Q    H         
--3------------------|-----------5S----7----|--5------------------|
---------------------|----------------------|------------3--------|
------------0--------|----------------------|-------2-------------|
-------2-------------|----------------------|--0------------------|
--3------------------|----------------------|---------------------|
---------------------|----------------------|---------------------|


                                                     NH                
  H        Q    Q       E  E  E  E  E  E  E  E       W                 
--2--------2----3----|--------------7-----------|---------------------|
---------------------|-----0--5--8-----6--5--0--|--<>5----------------|
---------------------|--------------------------|--<>5----------------|
---------------------|--------------------------|--<>5----------------|
---------------------|--------------------------|---------------------|
---------------------|--------------------------|---------------------|


  E  E  E  E  Q    Q       E  Q    E  E  Q    E     Q    Q    Q    Q     
--0-----------0---------|------------------------|----------------------|
-----3--1--3-------1----|--3--1----1-----1----1--|-------1----0----1----|
------------------------|------------------------|--0-------------------|
------------------------|------------------------|----------------------|
--0---------------------|--3---------------------|------------2---------|
--------------0---------|-------------1----------|--3-------------------|


  Q    Q    Q    Q       E  E  E  E   E  E  E    E     E  E  Q    E  E  E  E    
--0---------1----0----|---------------8-----7S---8--|-------------8--7---------|
-------3--------------|--1--1--1--1--10-----8S--10--|----------------------8S--|
----------------------|--2--2--2--2-----------------|--------------------------|
----------------------|-----------------------------|--------------------------|
--0-------------------|--0-----0------0--0-------0--|-----8--8----8--8--8------|
------------3---------|-----------------------------|--------------------------|


  E   E  E  E   E  E  E   E     E  E  E  E  E  E  Q       H        Q    Q     
-----------------------------|--------------------1----|--0------------------|
--1---1--1------1--1------3--|--1-----------1--3-------|--1------------------|
-----------------------------|-------------------------|--2--------2----2----|
-----------------------------|--------0-----0--2-------|--3------------------|
--3p--2-----3p--2-----3p--2--|--3-----------------3----|---------------------|
---------3---------3---------|-----3-----3-------------|---------------------|


  Q    Q    Q    Q       Q    Q    Q    E  E     Q    Q    H         
----------------------|-----------------0--1--|-------0-------------|
--3----1----0----1----|-------1----1----------|------------1--------|
--0-------------------|-----------------------|------------2--------|
--0-------------------|--0--------------------|------------2--------|
----------------------|-----------------------|--0---------0--------|
--3-------------------|--4--------------------|---------------------|


  E  E  E  E  E  E  E  E     E  E  E  E  E  Q.        E  E  E  E  E  E  E  E   
--------------0-----1-----|--3-----3-----7--8------|--7-----------------------|
--1-----3-----------------|------------------------|--------------------------|
--------------------------|------------------------|--------------------------|
--------------------------|------------------------|--------------------------|
--------------------------|------------------------|--------------------------|
-----1-----1-----1-----1--|-----1-----1------------|--3--3--3--3--3--3--3--3--|


     NH                                                                        
     H         H            Q    E  E   E  Q    E     E  E  E  E  E  E  E  E   
--<>12--------12S--------|--0-------5S--7----------|--5-----------------3-----|
--<>12--------12S--------|-------------------------|--------------------------|
--<>12--------12S--------|-------------------------|--------------------------|
-------------------------|-------------------------|--------------------------|
-------------------------|----------------------3--|-----3--3--3--3--3--3--3--|
-------------------------|--0----0------0--0-------|--------------------------|


  Q    Q    E  E  E  E     E  E  Q    E  E  E  E     Q    Q    E  Q    E   
--2----3----5-----------|-------------3-----------|--0---------2----------|
------------------3-----|--3----------------------|-----------------------|
------------------------|-------------------------|-----------------------|
--0----0----0--0--------|-------------------------|-----------------------|
------------------------|-------------------------|--------------------3--|
---------------------3--|-----3--3----3--3--3--3--|--0----0----0--0-------|


  E  E  E  E  E   E  E  E     Q    Q    E  E  E  E     E  E  Q    E  E  E  E   
--3-----------5h--7--5-----|--3----3----7-----5-----|--7----------------------|
---------------------------|------------------------|-------------------------|
---------------------------|------------------------|-------------------------|
---------------------------|--0----0----0--0--------|-------------------------|
-----3--3--3--3---3--3--3--|------------------------|-------------------------|
---------------------------|---------------------3--|-----3--3----3--3--3--3--|


  Q    Q    E   E  E  E     E  E  E  E  E  E  E  E     Q    Q    E  Q    E   
--0---------5h-----7-----|--5-----3-----2-----3-----|--5----5----7--8----8--|
-------------------------|--------------------------|-----------------------|
-------------------------|--------------------------|--------------------0--|
-------------------------|--------------------------|--0----0----0--0-------|
----------------------3--|-----3--3--3--3--3--3--3--|-----------------------|
--0----0----0---0--------|--------------------------|-----------------------|


  E  E  Q    E  E  E  E     Q    E  E  E  E  E  E     E  E  E  E  E  E  E  E   
--7----------0-----2-----|--3-------2--------3-----|--5--------3--------5-----|
-------------------------|-------------------------|--------------------------|
-----0--0----0--0--0--0--|-------------------------|--------------------------|
-------------------------|-------------------------|--------------------------|
-------------------------|--3----3-----3--3-----3--|-----3--3--3--3--3--3--3--|
-------------------------|-------------------------|--------------------------|


  Q    E   E  E  E  E  E     E  E  E  E  E  E  E  E     Q    Q    E  E  E  E   
--7-----------------7-----|--7--8--------7-----------|--0---------5-----7-----|
----------10--------------|--------------------------|------------------------|
--------------------------|--------------------------|------------------------|
--------------------------|--------------------------|------------------------|
--------------------------|--------------------------|---------------------3--|
--7----7------7--7-----7--|-----7--7--7--7--7--7--7--|--0----0----0--0--------|


  E  E  E  E  E  E  E  E     Q    Q    E  E  E  E     E  E  E  E  E  E  E  E   
--5-----------------3-----|--2----3----5-----------|-----------3--3-----------|
--------------------------|------------------3--3--|-----------------------3--|
--------------------------|------------------------|--------------------------|
--------------------------|--0----0----0--0--------|--------------------------|
-----3--3--3--3--3--3--3--|------------------------|--------------------------|
--------------------------|---------------------3--|-----3--3-----3--3--3--3--|


  Q    Q    E  Q    E     E  E  E  E  E  E  E  E     Q    Q    E  E  E  E   
--0---------2----------|--3-----------7-----5-----|--3----3----7-----5-----|
-----------------------|--------------------------|------------------------|
-----------------------|--------------------------|------------------------|
-----------------------|--------------------------|--0----0----0--0--------|
--------------------3--|-----3--3--3--3--3--3--3--|------------------------|
--0----0----0--0-------|--------------------------|---------------------3--|


  E  Q    E  E  E  E  E     Q    Q    E   E  E  E     E  E  E  E  E  E  E  E   
--7----------------------|--0---------5S-----7-----|--5-----3-----2-----3-----|
----------------------3--|-------------------------|--------------------------|
-------------------------|-------------------------|--------------------------|
-------------------------|-------------------------|--------------------------|
-------------------------|----------------------3--|-----3--3--3--3--3--3--3--|
-----3----3--3--3--3--3--|--0----0----0---0--------|--------------------------|


  Q    Q    E  E  E  E     E  E  E  E  E  E  E  E     Q    Q    E  Q    E   
-------0----2-----3-----|--5-----3-----2-----3-----|--3--------------------|
--3---------------------|--------------------------|-----------------------|
------------------------|--------------------------|-----------------------|
--0----0----0--0--------|--------------------------|-----------------------|
------------------------|--------------------------|--3----3----3--3----3--|
---------------------3--|-----3--3--3--3--3--3--3--|-----------------------|


  E  E  E  E  E  E  E  E     E  Q.     H           H        H          
--------------7--------5--|--5------------------|--2--------3--------||
--------------------------|------------3--------|--------------------||
--------------------------|---------------------|--------------------||
--------------------------|---------------------|--------------------||
-----3--3--3--3--3--3--3--|--2------------------|--------------------||
--------------------------|---------------------|--------------------||
Login or Register to remove this ad.