Ads

Live Patience (Koudelka) Guitar Tab

Submitted: Apr 25, 2010 by hslesperance (Last updated: Dec 27, 2010)

5
Average: 5 (2 votes)
Download | Listen
Game: Koudelka
Composer(s): Hiroki Kikuta
Style: Transcription

AutoScroll: Slow | Medium | Fast
Live Patience
Koudelka
Composed by Hiroki Kikuta
Tabbed by hslesperance
4/25/10

Drop D Tuning


             *                   *
e-------------------------------------------------------------
B------------1--1----------------0--0-------------------------
G---------2--2--2-------------2--2--2-------------------------
D------2-------------2-----2-------------2--------------------
A---0-------------------0-------------------------------------
D-------------------------------------------------------------

e---------8--7-------------4/5--\-------------0-----------3---
B------5----------8---5--8--------1/3--1--3-----1----3--------
G-------------------------------------------------------------
D---7---------------------------------------------------------
A-------------------------------------------------------------
D-------------------------------------------------------------

e---0-----------------------------------------------------0---
B------3--1---3--4/5----1----1--------------------1-------1---
G-------------------------------1/2----0-------2----0---2-0---
D-------------------------------------------3-------------3---
A-------------------------------------------------------------
D-------------------------------------------------------------

e-------------8--7---------------5\---------------5-----------
B----------5----------8----5---8-------------5--8----3/5--3---
G-----------------------------------------5-------------------
D---3/5-7----------------------------5/7----------------------
A-------------------------------------------------------------
D-------------------------------------------------------------

e---0---------------------------------------------------------
B------3--1---3-4/5--1--------------------------1-------------
G-----------------------3/5--2--0h2--0-------2-----0---2--0---
D-----------------------------------------3--------3------3---
A-------------------------------------------------------------
D-------------------------------------------------------------

e---8--7--5--7--8------8--12---12----8--7--5--7--7h8---7--8---
B-------------------------------------------------------------
G-------------------------------------------------------------
D-------------------------------------------------------------
A-------------------------------------------------------------
D-------------------------------------------------------------

e---4/5----5---------------8----10--------10-12-13-12---------
B-------------8-8--8/10----------------------------------13---
G-------------------------------------------------------------
D-------------------------------------------------------------
A-------------------------------------------------------------
D-------------------------------------------------------------
                                                           v
e---------------9/10---------------------------------------5--
B---10----13----------------9/10----13----10---------------5--
G-----------------------------------------------12\9--9----6--
D-------------------------------------------------------------
A-------------------------------------------------------------
D-------------------------------------------------------------

e---------8--7-------------5--------------0-------------3-----
B------5----------8---5--8------1/3--1--3-----1----3----------
G-------------------------------------------------------------
D---7---------------------------------------------------------
A-------------------------------------------------------------
D-------------------------------------------------------------

e---0------------0--------------------------------------------
B------3--1---3-------1----1----------------------------------
G-----------------------------1/2----2----0----1/2---0-2--0-2-
D-------------------------------------------------------------
A-------------------------------------------------------------
D-------------------------------------------------------------

e---------8--7-------------5--------------0--3-5----0---------
B------5----------8---5--8-----------1-------------------3----
G-------------------------------2-----------------------------
D---7---------------------------------------------------------
A-------------------------------------------------------------
D-------------------------------------------------------------

e---0-----------0---------------------------------------------
B------3--1---3-----------------------------------------------
G------------------4/5----5----2--1/2--0-0----1/2--0-1/2--0-2-
D-------------------------------------------------------------
A-------------------------------------------------------------
D-------------------------------------------------------------

e---8--7--5--7--8------8--12---12----8--7--5--7--7h8---7--8---
B-------------------------------------------------------------
G-------------------------------------------------------------
D-------------------------------------------------------------
A-------------------------------------------------------------
D-------------------------------------------------------------

e---4/5----5---------------8----10--------10-12-13-12---------
B-------------8-8--8/10----------------------------------13---
G-------------------------------------------------------------
D-------------------------------------------------------------
A-------------------------------------------------------------
D-------------------------------------------------------------

e---------------9/10-----------------------------------5--5---
B---10----13----------------9/10----13----10------------------
G-----------------------------------------------12--9---------
D-------------------------------------------------------------
A-------------------------------------------------------------
D-------------------------------------------------------------

e---7h8--7-5-------------------------------------8--7--8-10-8-
B------------5----7h8-----------------------8-10--------------
G----------------------9p7p5--7-5--4--5-7-9-------------------
D-------------------------------------------------------------
A-------------------------------------------------------------
D-------------------------------------------------------------

e---10-8-11----------------10-11-10-----9h10--8-7-------------
B------------13p12p10--13-----------13------------8-8h10------
G---------------------------------------------------------7-5-
D-------------------------------------------------------------
A-------------------------------------------------------------
D-------------------------------------------------------------

e--------------------------8-8h10--11-10-8--10h11--17-15------
B---------5-8-5-8h10--8-10------------------------------------
G---7-5-7-----------------------------------------------------
D-------------------------------------------------------------
A-------------------------------------------------------------
D-------------------------------------------------------------

e-------------------------------------------------------------
B---15h16p15------14h15--12-15-13--12-10----------------------
G-------------17-------------------------12-13-13p12-10-------
D-------------------------------------------------------12----
A-------------------------------------------------------------
D-------------------------------------------------------------

e-------------------------------------------------------------
B--------------------------------13p12-----13p12h13-17-17-19--
G-------------------12-12h14--12-------12---------------------
D---------12--12-14-------------------------------------------
A---13-14-----------------------------------------------------
D-------------------------------------------------------------
                           G
e---17----20----19------17------------------------------------
B---20--------------20----------------------------------------
G---------------------------20p19--17--17h19------------------
D-------------------------------------------------------------
A-------------------------------------------------------------
D-------------------------------------------------------------
    G
e---8--8-8-8-7-8-7----8--8------------------------------------
B------------------8--8--8--8---------------------------------
G-----------------------------7--5--7--7------5---5h7----7----
D-----------------------------------------5-7---7----------5--
A-------------------------------------------------------------
D-------------------------------------------------------------

e-------------5-7-8-7-------7-8-10----15--15-15--15p12--------
B-------5-6-8---------8/10-----------------------------13-----
G---5-7-------------------------------------------------------
D-------------------------------------------------------------
A-------------------------------------------------------------
D-------------------------------------------------------------
              X
e-------------------------------------------------------------
B---13h15-13--15--12-13-12-13----13--13--13-----13-------13---
G--------------------------------12--12--12--12----12-12-12---
D-------------------------------------------------------------
A-------------------------------------------------------------
D-------------------------------------------------------------

e---------------------------------------15----------15--------
B---------------------------12--------------12--13------12--13
G---12------------------12------------------------------------
D-------12--10--12--10--12--12----10--------------------------
A-------------------------------------------------------------
D-------------------------------------------------------------

e---15-------15-------15----15----15----------15----15----15--
B------12-13----12-13----12----13----12-13-13----12----13-----
G-------------------------------------------------------------
D-------------------------------------------------------------
A-------------------------------------------------------------
D-------------------------------------------------------------

e------15----------12--13--15--12-----------------------------
B---12----12-13-15-----------------13-------------------------
G--------------------------------------14-14~----12-12--------
D---------------------------------------------------------12--
A-------------------------------------------------------------
D-------------------------------------------------------------

e---------12--15-13-12--13-15-17------------------------------
B------13-----------------------------------------------------
G---14--------------------------------------------------------
D-------------------------------------------------------------
A-------------------------------------------------------------
D-------------------------------------------------------------

e---8--7--5--7--8------8--12---12----8--7--5--7--7h8---7--8---
B-------------------------------------------------------------
G-------------------------------------------------------------
D-------------------------------------------------------------
A-------------------------------------------------------------
D-------------------------------------------------------------

e---4/5----5---------------8----10--------10-12-13-12---------
B-------------8-8--8/10----------------------------------13---
G-------------------------------------------------------------
D-------------------------------------------------------------
A-------------------------------------------------------------
D-------------------------------------------------------------

e---------------10--------------------------------------------
B---10----13--------------------------------------------------
G-------------------------------------------------------------
D-------------------------------------------------------------
A-------------------------------------------------------------
D-------------------------------------------------------------

e---8--7--5--7--8------8--12---12----8--7--5--7--7h8---7--8---
B-------------------------------------------------------------
G-------------------------------------------------------------
D-------------------------------------------------------------
A-------------------------------------------------------------
D-------------------------------------------------------------

e---4/5----5-------------8/10----10--------10-12-13-12--------
B-------------8-8--10------------------------------------13---
G-------------------------------------------------------------
D-------------------------------------------------------------
A-------------------------------------------------------------
D-------------------------------------------------------------

e---------------10--------------------------------------------
B---10----13------------9/10----13----10-----------------10---
G-------------------------------------------12----9-----------
D-------------------------------------------------------------
A-------------------------------------------------------------
D-------------------------------------------------------------
Not 100% sure on this part
e---8---------------------------------------------------------
B---10-----8--------------------------------------------------
G-------10---9-10-9-7------7----------------------------------
D---------------------10p7---10-7-----------------------------
A---------------------------------10-8-7----5---------------3-
D----------------------------------------10---10-8-7-5-3--0---

e---15--15--12--12--12----------------------------------------
B-----------------------13/15--15--15--13~\-------------------
G-------------------------------------------------------------
D-------------------------------------------------------------
A-------------------------------------------------------------
D-------------------------------------------------------------
                  v
e--------------------------12--13--15-15----5-----------------
B----------8------8-------------------15--8---5--5--6--8--8---
G---9--10---------7-------------------14------------------5---
D-------------10--7-------------------------------------------
A-------------------------------------------------------------
D-------------------------------------------------------------

* - staccato
h - hammer on
p - pull off
/ - slide up
\ - slide down
v - downstroke arpeggio
X - muted note
G - guitar enters(shows where the two instruments overlap)
Login or Register to remove this ad.

1 comment on Live Patience

fuckin' A

5

fuckin' A