Login or Register to remove this ad.

Kumori Nochi Hare (Kore wa Zombie Desu ka?) Guitar Tab

Submitted: Jun 30, 2017 by Ttegdap

5
Average: 5 (1 vote)
Download | Listen
Game: Kore wa Zombie Desu ka?
Composer(s): Siam Shade
Style: Arrangement, Fingerstyle

AutoScroll: Slow | Medium | Fast
                                Kumori Nochi Hare

     E  E  Q    Q       E  E  Q    Q       E  E  E  E  Q       E  E  Q    Q     
E||-----0--2----0----|-----5--2---------|--2----------------|------------------|
B||--3---------------|--3----------3----|--------------3----|--2-----0---------|
G||------------------|------------------|--------2--4-------|-------------2----|
D||--0---------------|------------------|-----4-------------|-----2------------|
A||------------------|--4---------------|--2----------------|--0---------------|
E||------------------|------------------|-------------------|------------------|


  E  E  Q    Q       E  E  Q    Q       E  E  E  E  Q       Q    Q    Q     
-----0--2----0----|-----5--2---------|--2----------------|------------0----|
--3---------------|--3----------3----|--------------0----|--2----3---------|
------------------|------------------|-----------0-------|-----------------|
------------------|------------------|--------2----------|-----------------|
------------------|------------------|-----2-------------|--0---------0----|
--3---------------|--2---------------|--0----------------|-----------------|


  E  E  E  E  E  E     E  E  E  E  Q       Q    Q    Q       E  E  E  E  Q     
--------2-----0--2--|--5----------------|--7----5----3----|--5--------3--2----|
--3--5--------------|--------------2----|--0--------------|--------3----------|
--------------------|-----------2-------|--7----6----4----|-----2-------------|
-----4-----4--------|--------4----------|-----------------|--0----------------|
--2-----------------|-----4-------------|-----------------|-------------------|
--------------------|--2----------------|-----------------|-------------------|


  E  E  E  E  E  E     E  E  Q    Q       Q    Q    Q       E  E  E  E  Q     
--0--------------0--|--2---------------|--3----2---------|--0----------------|
--------------3-----|-------------2----|------------3----|-----------0--2----|
-----------0--------|--------2---------|-----------------|--------2----------|
--------2-----------|------------------|-----------------|-----2-------------|
-----2--------------|-----4------------|-----------------|--0----------------|
--0-----------------|--2---------------|--3--------------|-------------------|


                                                            ^                 
  E  E  Q    Q       E  E  Q    Q       E  E  E  E  Q       E  E  E  E  Q     
-----0--2----0----|-----5--2---------|--2----------------|-------------------|
--3---------------|--3----------3----|--------------3----|--1--------0-------|
--2---------------|--2---------------|--------2--4-------|--0-----0-----2----|
--0---------------|------------------|-----4-------------|--2--2--------4----|
------------------|--4---------------|--2----------------|--0-----------5----|
------------------|------------------|-------------------|-------------------|


  ^                  ^                                          ^
  E  E  Q    Q       E  E  E  E  Q       E  E  E  E    Q        H.
-------------0----|-------------------|-----------0--0g2----|--10--------------------||
-----0--3---------|--3-----------2----|--3-----3------------|---7--------------------||
--0---------------|--2-----2----------|-----2---------------|---7--------------------||
--2---------------|--2--2-------------|--0------------------|---0--------------------||
--2---------------|--0--------0-------|---------------------|------------------------||
--0---------------|-------------------|---------------------|------------------------||
Login or Register to remove this ad.

1 comment on Kumori Nochi Hare

Here's a video of me playing

Here's a video of me playing this for the first time, you'll get a feel for how difficult the song is as well as my pointers on how to play it:

https://youtu.be/0_WbuYDfEXE