Ads

Kumori Nochi Hare (Kore wa Zombie Desu ka?) Guitar Tab

Submitted: Jul 02, 2013 by max

5
Average: 5 (3 votes)
Download | Listen
Game: Kore wa Zombie Desu ka?
Composer(s): Siam Shade
Style: Arrangement, Fingerstyle

AutoScroll: Slow | Medium | Fast
kumori nochi hare kore wa zombie desu ka sperion

midi by Sperion


tabed by Max Weber

3/4

 |       |       |        |       |       |        |       |       |        
|----0---2-------0-------|----5---2---------------|2-----------------------|
|3-----------------------|3---------------3-------|------------0---3-------|
|------------------------|------------------------|--------2---------------|
|0-----------------------|------------------------|----4-------------------|
|------------------------|4-----------------------|2-----------------------|
|------------------------|------------------------|------------------------|
 
 |       |       |        |       |       |        |       |       |        
|------------------------|----0---2-------0-------|----5---2---------------|
|2-------0---------------|3-----------------------|3---------------3-------|
|----------------2-------|------------0-----------|--------2---------------|
|----2-------------------|----0-------------------|------------------------|
|0-----------------------|------------------------|------------------------|
|------------------------|3-----------------------|2-----------------------|
 
 |       |       |        |       |       |        |       |       |        
|2-----------------------|----------------0-------|----0---2-------0---2---|
|----------------0-------|2-------3-------2-------|3-----------------------|
|------------0-----------|--------2---------------|2-------2---------------|
|--------2---------------|------------------------|------------------------|
|----2-------------------|0---------------0-------|2-----------2-----------|
|0-----------------------|------------------------|----2-------------------|
 
 |       |       |        |       |       |        |       |       |        
|5-----------------------|7-------5---------------|5-----------------------|
|2---------------2-------|----------------8-------|3-----------------------|
|------------2-----------|--------6-------4-------|------------------------|
|--------4---------------|----5-------------------|--------2---5---4-------|
|----4-------------------|------------------------|5---------------5-------|
|2-----------------------|3-----------------------|----5-------------------|
 
 |       |       |        |       |       |        |       |       |        
|0-------------------0---|2-----------------------|3-------2---------------|
|0---------------3-------|----------------3-------|0---------------3-------|
|0-----------0---------2-|--------2---------------|------------------------|
|--------2---------------|------------------------|------------------------|
|----2-------------------|------------------------|------------------------|
|0-----------------------|2-----------------------|3-----------------------|
 
 |       |       |        
|0-----------------------|
|------------0---2-------|
|--------2---------------|
|----2-------------------|
|0-----------------------|
|------------------------|
 

 |       |       |        |       |       |        |       |       |        
|----0---2-------0-------|----5---2---------------|2-----------------------|
|3-----------------------|3---3-----------3-------|----------------3-------|
|2-------2-------2-------|2-------2-------2-----2-|------------2-----------|
|0-----------0-----------|------------------------|----------------------2-|
|----0-------------------|4-----------4-----------|2-------2---------------|
|------------------------|------------------------|----2-------------------|
 
 |       |       |        |       |       |        |       |       |        
|------------------------|----------------0-------|------------------------|
|1-----------------------|----0---3---------------|3---------------2-------|
|------------0---2-------|0---------------0-------|4-------0---------------|
|--------2-------4-------|------------2-----------|5---------------------4-|
|0---0-----------5-------|----2-------------------|0-----------0-----------|
|------------------------|0-----------------------|------------------------|
 
 |       |       |        |       |       |        |       |       |        
|----------------------0-|5-----------------------|------------------------|
|3-------------------3---|------------------------|------------------------|
|----------------2-------|------------------------|------------------------|
|0-------2---4-----------|------------------------|------------------------|
|----0-------------------|5-----------------------|------------------------|
|------------------------|------------------------|------------------------|
 

Created with TablEdit http://www.tabledit.com/
Login or Register to remove this ad.