Ads

Chiisana Boukensya (Kono Subarashii Sekai ni Shukufuku o) Guitar Tab

Submitted: Feb 26, 2016 by tomorning (Last updated: Feb 26, 2016)

5
Average: 5 (11 votes)
Download | Listen
Game: Kono Subarashii Sekai ni Shukufuku o
Composer(s): Yoshinari Sato
Style: Arrangement, Fingerstyle

AutoScroll: Slow | Medium | Fast
2ver . On Air Length / Full


                                     Chiisana Boukensya - On Air Length
                                               (小さな冒険者)
                                  ~ from anime "この素晴らしい世界に祝福を!" ~


Music by Yoshinari Satou (佐藤良成)
arranged by to*morning


Standard tuning (E,A,D,G,B,E)

 Moderato Q=78(8=s8)

                          ^            ^                  v         ^                                 
     Q    E  E     E  E   Q     E  E   E   E     E  E  E  E  E  E   Q        E  E  E  E  E  E  E  E   
E||-------0-----|---------5-----3--0----------|---------------------------|--------------0-----0--3--||
B||----------3--|---------5------------3------|--1-----1--3--1------1-----|--1-----1--3--------0-----||
G||-------------|--5------5-----------(0)--0--|-----2-----0---------0-----|--------0-----------0-----||
D||-------------|-----7--(7)-----------0------|-----------0-----2--(2)----|-----2--------------------||
A||-------------|--0--------------------------|--------------3------------|--3--------------2--------||
E||-------------|---------------3-------------|--1-----3------------------|--------------0-----------||


  E  E  E  E  E  E  E  E     E  E  E  E  Q     E   E     Q    E  E  E  E  E  E     E  E  E  E  E  E  E  E   
--5--8--5-----0-----0-----|--------------0-----0---3--|--5----3--0--------------|--------------0-----0--3--|
-----------8-----------3--|--1-----1--3---------------|-------------3-----------|--1-----1--3--------0-----|
--------5-----------0-----|--------2----------(0)-----|-------5-----------0-----|--------0-----------0-----|
--------7--------2--------|-----2--------------0------|--3-------------0-----0--|-----2--------------------|
--8-----------3-----------|--0------------------------|-------------------------|--3--------------2--------|
--------------------------|--------------3------------|-------------3-----------|--------------0-----------|


                                                                                         >           >      
  |-3|                                                                                                      
  E  Q    E  E  E  E  E  E     E  E  Q    E  E  E  E     E  E  E  E  Q    E  E     E  E  E  E  E  E  E  E   
--5--8----5-----0-----0-----|--------5----3--0--------|-------------------0--1--||--3--------5--3--------5--|
-------------8-----------3--|--------5----------3-----|--1-----1--3--1----------||--------0-----------1-----|
----------5-----------0-----|--5-------------------0--|-----2--0-----0----------||--------0-----------2-----|
----------7--------2--------|-----7-------------0-----|--------0-----2----------||-----2-----------3--------|
--8-------------3-----------|--0----------------------|--------------3----------||--------------------------|
----------------------------|-------------3-----------|--1-----3----------------||--0-----------1-----------|


                                   >           >                                         >           >      
  E  E  E  E  E  E  E  E     E  E  E  E  E  E  E  E     E  E  E  E  E  E  E  E     E  E  E  E  E  E  E  E   
--3--0--------0-----0--1--|--3--------5--3--------5--|--3--0--------------0--1--|--3--------5--3--------5--|
--------3--1--------1-----|--------0-----------1-----|--0-----3--1--1-----1-----|--------0-----------1-----|
--------0-----------2-----|--------0-----------2-----|--0-----------------0-----|--------0-----------2-----|
-----0-----------2--------|-----2-----------3--------|--------0--------2--------|-----2-----------3--------|
--------------0-----------|--------------------------|--------------3-----------|--------------------------|
--3-----------------------|--0-----------1-----------|--3-----------------------|--0-----------1-----------|


                                   >             >                                     >           >      
  E  E  E  E  E  E  E  E     E  E  E  E  Q    E  E     E  E  E  E  Q    E  E     E  E  E  E  E  E  E  E   
--3--5--8--7--8-----------|--3-----0----------------|--0----------------0--1--|--3--------5--3--------5--|
--------0-----------5--6--|--------0--1-------1--3--|-----3--1--3--1----------|--------0-----------1-----|
--------0-----------5-----|--------0-----2----2-----|--------------0----------|--------0-----------2-----|
-----------------7--------|-----2-------------3--0--|--------------2----------|-----2-----------3--------|
--------------0-----------|-------------------------|--------2-----3----------|--------------------------|
--3-----------------------|--0-----------1----------|--3----------------------|--0-----------1-----------|


                                   >           >                                         >           >      
  E  E  E  E  E  E  E  E     E  E  E  E  E  E  E  E     E  E  E  E  E  E  E  E     E  E  E  E  E  E  E  E   
--3--0--------0-----0--1--|--3--------5--3--------5--|--3--0-----0--------0--1--|--3--------5--3--------5--|
--------3--1--------1-----|--------0-----------1-----|--0-----3--1--1-----1-----|--------0-----------1-----|
--------0-----------2-----|--------0-----------2-----|--0-----------0-----0-----|--------0-----------2-----|
-----0-----------2--------|-----2-----------3--------|--------0--------2--------|-----2-----------3--------|
--------------0-----------|--------------------------|--------------3-----------|--------------------------|
--3-----------------------|--0-----------1-----------|--3-----------------------|--0-----------1-----------|


                                   >             >                                     >             >   
  E  E  E  E  E  E  E  E     E  E  E  E  Q    E  E     E  E  E  E  Q    E  E     E  E  E  E  Q    E  E   
--3--5--8--7--8-----------|--3-----0----------------|--0----------------0--1--||--3-----0----------------|
--------0-----------5--6--|--------0--1-------1--3--|-----3--1--3--1----------||--------0--1-------1--3--|
--------0-----------5-----|--------0-----2----2-----|--------0-----0----------||--------0-----2----2-----|
-----------------7--------|-----2-------------3--0--|--------0-----2----------||-----2-------------3--0--|
--------------0-----------|-------------------------|--------------3----------||-------------------------|
--3-----------------------|--0-----------1----------|--3----------------------||--0-----------1----------|


              <          
  E  E  E  E  H          
--0--------------------||
-----3--1--3--1--------||
--------------0--------||
--------------2--------||
--------2-----3--------||
--3--------------------||





|~*/~*/~*/~*/~*/~*/~*/~*/~*/~*/~*/~*/~*/~*/~*/~*/~*/~*/~*/~*/~*/~*/~*/~*/~*/~*/~*/~*/~*/~*/~*/~*/~*/~*/~*/~*/~*/~*/~*/~*/~*/~*/~*/~*|

Full Length ver



            ^            ^            v    ^             ^                ^            ^       
     E  E   E   E  E  E  E  E     E   E    E   E  E  E   E   E     E  E   Q     E  E   E   E   
E||----------------0-----0--3--|--5---8----5------0------0------|---------5-----3--0----------|
B||--1------1---3--------0-----|------5----5---8---------1---3--|---------5------------3------|
G||---------0------------0-----|------5----5-------------0------|--5------5-----------(0)--0--|
D||-----2--(2)-----------2-----|-----(7)--(7)--------2--(2)-----|-----7--(7)-----------0------|
A||--3----------------2--------|--8---------------3-------------|--0--------------------------|
E||----------------0-----------|--------------------------------|---------------3-------------|


           v         ^                                                              
  E  E  E  E  E  E   Q          E  E  E  E  E  E  E  E     E  E  E  E  E  E  E  E   
---------------------------||---------------0-----0--3--|--5--8--5-----0-----0-----|
--1-----1--3--1------1-----||---1-----1--3--------0-----|-----------8-----------3--|
-----2-----0---------0-----||*--------0-----------0-----|--------5-----------0-----|
-----------0-----2--(2)----||*-----2--------------------|--------7--------2--------|
--------------3------------||---3--------------2--------|--8-----------3-----------|
--1-----3------------------||---------------0-----------|--------------------------|


                                                     |1.
                                                     |
  E  E  E  E  Q     E   E     Q    E  E  E  E  E  E     E  E  E  E  E  E  E  E     S E.  E  E  E  E  E  E   
--------------0-----0---3--|--5----3--0--------------|--------------0-----0--3--|--5-8---5-----0-----0-----|
--1-----1--3---------------|-------------3-----------|--1-----1--3--------0-----|-----------8-----------3--|
--------2----------(0)-----|-------5-----------0-----|--------0-----------0-----|--------5-----------0-----|
-----2--------------0------|--3-------------0-----0--|-----2--------------------|--------7--------2--------|
--0------------------------|-------------------------|--3--------------2--------|--8-----------3-----------|
--------------3------------|-------------3-----------|--------------0-----------|--------------------------|


                                                     |2.
                                                     |
  E  E  Q    E  E  E  E     E  E  E  E  E  E  Q         E  E  E  E  E  E  E  E     E  E  E  E  E  E  E  E   
--------5----3--0--------|--------------------------||--------------0-----0--3--|--5--8--5-----0-----0-----|
--------5----0-----3-----|--1-----1--3--1-----1-----||--1-----1--3--------0-----|-----------8-----------3--|
--5----------0--------0--|-----2-----0--------0----*||--------0-----------0-----|--------5-----------0-----|
-----7-------------0-----|-----------0-----2-------*||-----2--------------------|--------7--------2--------|
--0----------------------|--------------3-----------||--3--------------2--------|--8-----------3-----------|
-------------3-----------|--1-----3-----------------||--------------0-----------|--------------------------|


                                                            >           >                                 
  E  E  Q    E  E  E  E     E  E  E  E  Q    E  E     E  E  E  E  E  E  E  E     E  E  E  E  E  E  E  E   
--------5----3--0--------|-------------------0--1--|--3--------5--3--------5--|--3--0--------0-----0--1--|
--------5----------3-----|--1-----1--3--1----------|--------0-----------1-----|--------3--1--------1-----|
--5-------------------0--|-----2--0-----0----------|--------0-----------2-----|--------0-----------2-----|
-----7-------------0-----|--------0-----2----------|-----2-----------3--------|-----0-----------2--------|
--0----------------------|--------------3----------|--------------------------|--------------0-----------|
-------------3-----------|--1-----3----------------|--0-----------1-----------|--3-----------------------|


        >           >                                         >           >                                 
  E  E  E  E  E  E  E  E     E  E  E  E  E  E  E  E     E  E  E  E  E  E  E  E     E  E  E  E  E  E  E  E   
--3--------5--3--------5--|--3--0--------------0--1--|--3--------5--3--------5--|--3--5--8--7--8-----------|
--------0-----------1-----|--0-----3--1--1-----1-----|--------0-----------1-----|--------0-----------5--6--|
--------0-----------2-----|--0-----------------0-----|--------0-----------2-----|--------0-----------5-----|
-----2-----------3--------|--------0--------2--------|-----2-----------3--------|-----------------7--------|
--------------------------|--------------3-----------|--------------------------|--------------0-----------|
--0-----------1-----------|--3-----------------------|--0-----------1-----------|--3-----------------------|


        >             >                                      ^            ^      
  E  E  E  E  Q    E  E     E  E  E  E  E  E  Q       E  E   E   E  E  E  E  E   
--3-----0----------------|--0-----------------0----|----------------0-----0--3--|
--------0--1-------1--3--|-----3--1--3--1----------|--1------1---3--------0-----|
--------0-----2----2-----|--------------0----------|---------0------------0-----|
-----2-------------3--0--|-----------------2-------|-----2--(2)-----------2-----|
-------------------------|--------2-----3----------|--3----------------2--------|
--0-----------1----------|--3----------------------|----------------0-----------|


      v    ^             ^                ^             ^                ^             ^    v    
  E   E    E   E  E  E   E   E     E  E   E   E  E  E   E   E     E  E   E   E  E  E   E    E    
--5---8----5------0------0------|----------------0------0---3--|--5----------0------------------|
------5----5---8---------1---3--|--1------1---3---------0------|---------8------3------0----0---|
------5----5-------------0------|---------2-------------0------|---------5-------------0----0---|
-----(7)--(7)--------2--(2)-----|-----2--(2)--------0--(0)-----|-----7--(7)--------0--(0)--(0)--|
--8---------------3-------------|--0---------------------------|--8-----------------------------|
--------------------------------|----------------3-------------|----------------3---------------|


         ^            ^            v    ^             ^                ^            ^       
  E  E   E   E  E  E  E  E     E   E    E   E  E  E   E   E     E  E   Q     E  E   E   E   
----------------0-----0--3--|--5---8----5------0------0------|---------5-----3--0----------|
--1------1---3--------0-----|------5----5---8---------1---3--|---------5------------3------|
---------0------------0-----|------5----5-------------0------|--5------5-----------(0)--0--|
-----2--(2)-----------2-----|-----(7)--(7)--------2--(2)-----|-----7--(7)-----------0------|
--3----------------2--------|--8---------------3-------------|--0--------------------------|
----------------0-----------|--------------------------------|---------------3-------------|


           v         ^                                                                                        
  E  E  E  E  E  E   Q        E  E  E  E  E  E  E  E     E  E  E  E  E  E  E  E     E  E  E  E  Q     E   E   
---------------------------|--------------0-----0--3--|--5--8--5-----0-----0-----|--------------0-----0---3--|
--1-----1--3--1------1-----|--1-----1--3--------0-----|--------5--8-----------3--|--1-----1--3---------------|
-----2-----0---------0-----|--------0-----------0-----|--------5-----------0-----|--------2----------(0)-----|
-----------0-----2--(2)----|-----2--------------------|-----------------2--------|-----2--------------0------|
--------------3------------|--3--------------2--------|--8-----------3-----------|--0------------------------|
--1-----3------------------|--------------0-----------|--------------------------|--------------3------------|


  Q    E  E  E  E  E  E     E  E  E  E  E  E  E  E     E  E  E  E  E  E  E  E     E  E  Q    E  E  E  E   
--5----3--0--------------|--------------0-----0--3--|--5--8--5-----0-----0-----|--------5----3--0--------|
-------------3-----------|--1-----1--3--------0-----|--------5--8-----------3--|--------5----0-----3-----|
-------5-----------0-----|--------0-----------0-----|--------5-----------0-----|--5----------0--------0--|
--3-------------0-----0--|-----2--------------------|-----------------2--------|-----7-------------0-----|
-------------------------|--3--------------2--------|--8-----------3-----------|--0----------------------|
-------------3-----------|--------------0-----------|--------------------------|-------------3-----------|


                                  >           >                                         >           >      
  E  E  E  E  Q    E  E     E  E  E  E  E  E  E  E     E  E  E  E  E  E  E  E     E  E  E  E  E  E  E  E   
-------------------0--1--|--3--------5--3--------5--|--3--0--------0-----0--1--|--3--------5--3--------5--|
--1-----1--3--1----------|--------0-----------1-----|--------3--1--------1-----|--------0-----------1-----|
-----2--0-----0----------|--------0-----------2-----|--------0-----------2-----|--------0-----------2-----|
--------0-----2----------|-----2-----------3--------|-----0-----------2--------|-----2-----------3--------|
--------------3----------|--------------------------|--------------0-----------|--------------------------|
--1-----3----------------|--0-----------1-----------|--3-----------------------|--0-----------1-----------|


                                   >           >                                         >             >   
  E  E  E  E  E  E  E  E     E  E  E  E  E  E  E  E     E  E  E  E  E  E  E  E     E  E  E  E  Q    E  E   
--3--0--------------0--1--|--3--------5--3--------5--|--3--5--8--7--8-----------|--3-----0----------------|
--0-----3--1--1-----1-----|--------0-----------1-----|--------0-----------5--6--|--------0--1-------1--3--|
--0-----------------0-----|--------0-----------2-----|--------0-----------5-----|--------0-----2----2-----|
--------0--------2--------|-----2-----------3--------|-----------------7--------|-----2-------------3--0--|
--------------3-----------|--------------------------|--------------0-----------|-------------------------|
--3-----------------------|--0-----------1-----------|--3-----------------------|--0-----------1----------|


                                  >           >                                         >           >      
  E  E  E  E  Q    E  E     E  E  E  E  E  E  E  E     E  E  E  E  E  E  E  E     E  E  E  E  E  E  E  E   
--0----------------0--1--|--3--------5--3--------5--|--3--0--------0-----0--1--|--3--------5--3--------5--|
-----3--1--3--1----------|--------0-----------1-----|--------3--1--------1-----|--------0-----------1-----|
--------------0----------|--------0-----------2-----|--------0-----------2-----|--------0-----------2-----|
--------------2----------|-----2-----------3--------|-----0-----------2--------|-----2-----------3--------|
--------2-----3----------|--------------------------|--------------0-----------|--------------------------|
--3----------------------|--0-----------1-----------|--3-----------------------|--0-----------1-----------|


                                   >           >                                         >             >   
  E  E  E  E  E  E  E  E     E  E  E  E  E  E  E  E     E  E  E  E  E  E  E  E     E  E  E  E  Q    E  E   
--3--0-----0--------0--1--|--3--------5--3--------5--|--3--5--8--7--8-----------|--3-----0----------------|
--0-----3--1--1-----1-----|--------0-----------1-----|--------0-----------5--6--|--------0--1-------1--3--|
--0-----------0-----0-----|--------0-----------2-----|--------0-----------5-----|--------0-----2----2-----|
--------0--------2--------|-----2-----------3--------|-----------------7--------|-----2-------------3--0--|
--------------3-----------|--------------------------|--------------0-----------|-------------------------|
--3-----------------------|--0-----------1-----------|--3-----------------------|--0-----------1----------|


                           rit....................................
                                  >             >                 <          
  E  E  E  E  Q    E  E     E  E  E  E  Q    E  E     E  E  E  E  H          
--0----------------0--1--|--3-----0----------------|--0--------------------||
-----3--1--3--1----------|--------0--1-------1--3--|-----3--1--3--1--------||
--------0-----0----------|--------0-----2----2-----|--------------0--------||
--------0-----2----------|-----2-------------3--0--|--------------2--------||
--------------3----------|-------------------------|--------2-----3--------||
--3----------------------|--0-----------1----------|--3--------------------|| fine.

Login or Register to remove this ad.

4 comments on Chiisana Boukensya

Best anime of the season

5

Excellent tab! I'm going to print it out and plaster the pages to the walls of my shrine to Aqua!

Nice! Really liking the small

5

Nice! Really liking the small strumming sections like in the 2nd measurement. Always relaxing to play your tabs.

Naen was here!

5

excelent!!!! really beautiful melody and great job! i enjoy playing chisana bokensya!

Naen was here!

5

excellent!!!! really beautiful melody and great job! i enjoy playing chisana bokensya!