Ads

Sword of Virgin (Koiken Otome) Guitar Tab

Submitted: Aug 24, 2014 by corntastic

0
Download | Listen
Game: Koiken Otome
Composer(s): Daisuke Kikuta, Junpei Fujita, Tomohiro Kita
Style: Transcription

AutoScroll: Slow | Medium | Fast
Sword of Virgin
Kai Kawasaki, fripSide
Koiken Otome
http://vgmdb.net/album/36940

corntastic
21 8 2014

e-------------------------------------------------------------------------
B------11--10--11----11------10--11--13----11--10--11---------------------
G------------------------12---------------------------10------------------
D--12---------------------------------------------------------------------
A-------------------------------------------------------------------------
E-------------------------------------------------------------------------

e-------------------------------------------------------------------------
B---------------------------10--11--10------------------------------------
G--10--12---12---12-12--12--------------12--12--11-12---------------------
D-------------------------------------------------------------------------
A-------------------------------------------------------------------------
E-------------------------------------------------------------------------

e--------------------------------------------13--11--10-------------------
B--11---11---11-11---11--13--11--10--11--13--------------13--11-----------
G-------------------------------------------------------------------------
D-------------------------------------------------------------------------
A-------------------------------------------------------------------------
E-------------------------------------------------------------------------

e--11--10-----------------------------------------------------------------
B----------13--11--10--------10-------------------------------------------
G------------------------12-----12----------------------------------------
D-------------------------------------------------------------------------
A-------------------------------------------------------------------------
E-------------------------------------------------------------------------

______________________________________________________________________________________


e------------------------0--1-0-------------------------------------------
B--3--1---3----3---3--3----------1----------------------------------------
G-----------------------------------2-------------------------------------
D-------------------------------------------------------------------------
A-------------------------------------------------------------------------
E-------------------------------------------------------------------------

e--------------1---1-----1--3--1--0---------------------------------------
B--3--1---3-----------3---------------------------------------------------
G-------------------------------------------------------------------------
D-------------------------------------------------------------------------
A-------------------------------------------------------------------------
E-------------------------------------------------------------------------

e------------------------0--1-0-------------------------------------------
B--3--1---3----3---3--3----------1----------------------------------------
G-----------------------------------2-------------------------------------
D-------------------------------------------------------------------------
A-------------------------------------------------------------------------
E-------------------------------------------------------------------------

e------0---1---3--5----5--3--3--------------------------------------------
B--3----------------------------6--6--5-----------------------------------
G-------------------------------------------------------------------------
D-------------------------------------------------------------------------
A-------------------------------------------------------------------------
E-------------------------------------------------------------------------

this sectino x2 (only once the second loop)

______________________________________________________________________________________


e-------------3--4--3---3-------------------------------------------------
B--6---6---6---------------4-----4----------------------------------------
G-----------------------------5-------------------------------------------
D-------------------------------------------------------------------------
A-------------------------------------------------------------------------
E-------------------------------------------------------------------------

e----------3--4---3-------------------------------------------------------
B--6---6-------------6--4-------------------------------------------------
G-------------------------------------------------------------------------
D-------------------------------------------------------------------------
A-------------------------------------------------------------------------
E-------------------------------------------------------------------------

e-------------3--4--3---3---3---------------------------------------------
B--6---6---6-------------------4-----5----5-5-5-6--8----------------------
G---------------------------------5---------------------------------------
D-------------------------------------------------------------------------
A-------------------------------------------------------------------------
E-------------------------------------------------------------------------

______________________________________________________________________________________



e-----6--5--6----6-----5--6--8---6------6---------------------------------
B-------------------8---------------10------------------------------------
G--7---------------------------------------10-----------------------------
D-------------------------------------------------------------------------
A-------------------------------------------------------------------------
E-------------------------------------------------------------------------

e-------------------------------------------------------------------------
B------8---8---8-8--8--10--11--10--8--8-----------------------------------
G--10------------------------------------11-12----------------------------
D-------------------------------------------------------------------------
A-------------------------------------------------------------------------
E-------------------------------------------------------------------------

e--------------------------------------------13--11--10-------------------
B--11---11---11-11---11--13--11--10--11--13--------------13--11-----------
G-------------------------------------------------------------------------
D-------------------------------------------------------------------------
A-------------------------------------------------------------------------
E-------------------------------------------------------------------------

e--11--10-----------------------------------------------------------------
B----------13--11--10--------10-------------------------------------------
G------------------------12-----12----------------------------------------
D-------------------------------------------------------------------------
A-------------------------------------------------------------------------
E-------------------------------------------------------------------------


e-------------------------------------------------------------------------
B------11--10--11----11------10--11--13----11--10--11---------------------
G------------------------12---------------------------10------------------
D--12---------------------------------------------------------------------
A-------------------------------------------------------------------------
E-------------------------------------------------------------------------

e-------------------------------------------------------------------------
B-------------------------11---10----------10--11-------------------------
G--10--12---12---12---12-----------10--12---------------------------------
D-------------------------------------------------------------------------
A-------------------------------------------------------------------------
E-------------------------------------------------------------------------

e--10--10--8-11--10--8------------------8-10------------------------------
B-----------------------11--10--10--11------------------------------------
G-------------------------------------------------------------------------
D-------------------------------------------------------------------------
A-------------------------------------------------------------------------
E-------------------------------------------------------------------------

e--8------------------------8---------------------------------------------
B-----11--8--------8-10-11-----11--10--------11-10-8----------------------
G-------------------------------------------------------------------------
D-------------------------------------------------------------------------
A-------------------------------------------------------------------------
E-------------------------------------------------------------------------

repeat everything

______________________________________________________________________________________



e-------------------------------------------------------------------------
B------11--10--11----11------10--11--13----11--10--11---------------------
G------------------------12---------------------------10------------------
D--12---------------------------------------------------------------------
A-------------------------------------------------------------------------
E-------------------------------------------------------------------------

e-------------------------------------------------------------------------
B---------------------------10--11--10------------------------------------
G--10--12---12---12-12--12--------------12--12--11-12---------------------
D-------------------------------------------------------------------------
A-------------------------------------------------------------------------
E-------------------------------------------------------------------------

e--------------------------------------------13--11--10-------------------
B--11---11---11-11---11--13--11--10--11--13--------------13--11-----------
G-------------------------------------------------------------------------
D-------------------------------------------------------------------------
A-------------------------------------------------------------------------
E-------------------------------------------------------------------------

e--11--10-----------------------------------------------------------------
B----------13--11--10--------10-------------------------------------------
G------------------------12-----12----------------------------------------
D-------------------------------------------------------------------------
A-------------------------------------------------------------------------
E-------------------------------------------------------------------------


______________________________________________________________________________________


e-------------------------------------------------------------------------
B------12--11--12----12------11--12--14----12--11--12---------------------
G------------------------13---------------------------11------------------
D--13---------------------------------------------------------------------
A-------------------------------------------------------------------------
E-------------------------------------------------------------------------

e-------------------------------------------------------------------------
B---------------------------11--12--11------------------------------------
G--11--13---13---13-13--13--------------13--13--12-13---------------------
D-------------------------------------------------------------------------
A-------------------------------------------------------------------------
E-------------------------------------------------------------------------

e--------------------------------------------14--12--11-------------------
B--12---12---12-12---12--14--12--11--12--14--------------14--12-----------
G-------------------------------------------------------------------------
D-------------------------------------------------------------------------
A-------------------------------------------------------------------------
E-------------------------------------------------------------------------

e--12--11-----------------------------------------------------------------
B----------14--12--11--------11-------------------------------------------
G------------------------13-----13----------------------------------------
D-------------------------------------------------------------------------
A-------------------------------------------------------------------------
E-------------------------------------------------------------------------


e-------------------------------------------------------------------------
B------12--11--12----12------11--12--14----12--11--12---------------------
G------------------------13---------------------------11------------------
D--13---------------------------------------------------------------------
A-------------------------------------------------------------------------
E-------------------------------------------------------------------------

e-------------------------------------------------------------------------
B-------------------------12---11----------11--12-------------------------
G--11--13---13---13---13-----------11--13---------------------------------
D-------------------------------------------------------------------------
A-------------------------------------------------------------------------
E-------------------------------------------------------------------------

e--11--11--9-12--11--9------------------9-11------------------------------
B-----------------------12--11--11--12------------------------------------
G-------------------------------------------------------------------------
D-------------------------------------------------------------------------
A-------------------------------------------------------------------------
E-------------------------------------------------------------------------

e--9------------------------9---------------------------------------------
B-----12--9--------9-11-12-----12--11--------12-11-9----------------------
G-------------------------------------------------------------------------
D-------------------------------------------------------------------------
A-------------------------------------------------------------------------
E-------------------------------------------------------------------------
Login or Register to remove this ad.