Ads

Let's! Ohime-sama Dakko (Kodomo no Jikan) Guitar Tab

Submitted: May 08, 2017 by MechaKrauser

0
Download | Listen
Game: Kodomo no Jikan
Composer(s): Masala Nishid.
Style: Arrangement, Fingerstyle

AutoScroll: Slow | Medium | Fast
Let's! Ohime-sama Dakko
from Kodomo no Jikan
performed by Eri Kitamura, Kei Shindo, Mai Kadowaki
words by Aki Hata
music by Hiroyuki Maezawa
tab by MechaKrauser

Standard tuning
4/4 time, 93bpm


   [Intro]
     ^             ^                ^             ^        ^    
     E  S S S E  S E  S S S E  S    E  S S S E  S E  S S S E.   
E||---------------------1-L-0----|-----------------------------|
B||--3----1-L-3----3----1-L-0----|--3----1-L-3----3----1-L-2---|
G||--2----0-L-2----2-------------|--2----0-L-2----2----0-L-1---|
D||--0--------0----0----3-L-2----|--0--------0----0------------|
A||-----0-3-L----0----0--------0-|-----0-3-L----0----2-3-L-4---|
E||------------------------------|-----------------------------|


  ^             ^                ^             ^ |-3-| |-3-|       
  E  S S S E  S E  S S S E  S    E  S S S E  S S S S S S S S S S S  
---------------------1-L-0----|------------------------------------|
--3----1-L-3----3----1-L-0----|--3----1-L-3----3-----3-----3-----3-|
--2----0-L-2----2-------------|--2----0-L-2----2---2-----2---------|
--0--------0----0----3-L-2----|--0--------0------0-----0-----0-----|
-----0-3-L----0----0--------0-|-----0-3-L----0---------------------|
------------------------------|------------------------------------|


 [Verse]

  S S S S E  E  S E  S S E  S    S S S S E  E  S E  S S E  S  
--2-2-2-2-2--2--0-------------|--2-2-2-2-2--2--0--------0----|
------------------3--3-L----3-|------------------3--3-L----3-|
------------------------------|------------------------------|
--0-------0-----0----0-L-0----|--0-------0-----0----0-L-0--0-|
------------------------------|------------------------------|
------------------------------|------------------------------|


  S S S S S S S S S S S S S E  S    S S S S S S S S S S S S S S S S  
----------2-------2--------------|----------2-------2-------2-3-4-5-|
--L-3-2-3---3-2-3---3-2-3-L------|----3-2-3---3-2-3---3-2-3---------|
---------------------------------|----------------------------------|
--L-------0-------0-----0-L-0----|--0-------------0-----------0-----|
---------------------------------|--------3---4-------3---4-------3-|
---------------------------------|----------------------------------|


  S S S S E  E  S E  S S E  S    S S S S E  E  S E  S S E  S    S E.  Q    E  S S S E  S  
--2-2-2-2-2--2--0-------------|--2-2-2-2-2--2--0--------0--5-|--L-5--------5--5-5-L-3--2-|
------------------3--3-L----3-|------------------3--3-L----2-|----2----------------------|
------------------------------|------------------------------|---------------------------|
--0-------0-----0----0-L-0----|--0-------0-----0----0-L-0----|-------------------------0-|
------------------------------|----------------------------0-|--L-0---0----0----2-L-4----|
------------------------------|------------------------------|---------------------------|


                                [Pre-Chorus]
                           ^
  S E  S S S S S S S S S S E  S    S S E  E  E  S E  S S E  S    S S E  E  E  S E  S S E  S  
--L------2-------2------------3-|--L---2--0-----------------2-|--L--------------------------|
----3--3---3-2-3---3-2-3-L-3--3-|--L---------3--2-3--5-L----2-|--L---5--3--2----2--3-L----3-|
---------------------------2----|---------0----------2-L------|---------2-----4----4-L------|
--L------0-------0-----0-L------|---------------2-------------|---------------4-------------|
--------------------------------|---------------0----0-L-0----|---------------2----2-L-2----|
------------------------------3-|--L-3----3-----------------2-|--L-2----2-----------------3-|

                                                          ^
  S S S S E  S S S S S S S S E     E  S S S E  S S E  S S E  S    S S E  E  E  S E  S S E  S  
---------------0-----0----------|--2--0-2---3--2-L-----------3-|--L---2--0-----------------2-|
--L-3-3-3-3--3-----3-----3-3----|--3--3-3---3--3-L--------3--3-|--L---------3--2-3--5-L----2-|
--------------------------------|-------------------------2----|---------0----------2-L------|
--------------------------------|------------------------------|---------------2-------------|
-----------------0-----0---0----|--2------2----0-L-2--2-L------|---------------0----0-L-0----|
--L-3-----3---------------------|----------------------------3-|--L-3----3-----------------2-|


  S S E  E  E  S E  S S E  S    S S S S E  S S S S S S E  E     E  E  E  E  E  E  E  E   
--L--------------------------|-------------------------0--2--|--0-----2-----3-----4-----|
--L---5--3--2----2--3-L----3-|--L-3-3-3-3----3-L-3-3-3-2--3--|--2-----3-----5-----6-----|
---------2-----4----4-L------|---------------4-L-4-4-4-------|--------------------------|
---------------4-------------|-------------------------------|--------------------------|
---------------2----2-L-2----|-------------------------------|--0--0--2--2--3--3--4--4--|
--L-2----2-----------------3-|--L-3----------3-L-3-----------|--------------------------|


 [Chorus]

  E  E  E  E  E  E  E  E     E  E  E  E  E  E  E  E     E  E  S S E  E.  S S S E   
--5--5--5--7--5--------0--|--2--2--2--3--2-----------|------------7--5---------0--|
--7--7--7--8--5-----3--2--|--3--3--3--5--2-----3--2--|--3-----3------------3---2--|
--------------------4-----|--------------------------|-----6---------------2------|
--0--------0--------------|--------------------------|----------------------------|
--------------4-----------|--2--------2--0-----------|----------------------------|
--------------------------|--------------------------|--3-----3-3----2-----2-2----|


  Q    S S E  E  S S S E.     E  E  E  E  E  E  E  E     E  E  E  E  E  E  E  E   
--2--------0--0------------|--5--5--5--7--5--------0--|--2--2--2--3--2-----------|
--3--------3--2------------|--7--7--7--8--5-----3--2--|--3--3--3--5--2-----3--2--|
--4--------4--2------------|--------------------4-----|--------------------4--2--|
---------------------------|--0--------0--------------|--------------------------|
--------------0--0-2-L-4---|--------------4-----------|--2--------2--0-----------|
--0----0-0-----------------|--------------------------|--------------------------|


  E  E  S S E  E  E  S S E     E  S S S E  S S E  S E  E     E  S S E  S S E  S S E  E   
------------0--2--0------0--|--0--------------------------|------------0---2--0------0--|
--3--2--3---2--3--2--3------|--2--3-3---------------3--2--|--3--2---3--2---3--2---3-----|
--4--2--4------------4---2--|-----4-4---------------4--2--|--0--0---0--2---2--2---4--2--|
----------------------------|-----------------------4--2--|--0--2---0-------------4--2--|
---------------0-----0-0----|--2------2-2--0-L-2--2-------|--------------0------0-------|
--3-----3-3-----------------|-----------------------------|--3----3---------------------|


                            [Outro]

  E  S S Q    S E  S S S E     Q    S S E  E.  S S S E     Q    S S E  E.  S S S E   
--0------------------2---0--|--------------------2---3--|--5-----------------2---0--|
--0--3-3--------------------|--3------------------------|---------------------------|
-----2-2--------------------|---------------------------|-----------0--2------------|
--0------0----0-0--0---0----|--0----4---2--0---0---0----|--0----4------0---0---0----|
----------------------------|-------5-5-----------------|-------5-5-----------------|
----------------------------|---------------------------|---------------------------|


                    ^
  Q    S S E  S S S S Q       Q.     E   H          
---------------------------|----------------------||
--3------------------------|----------------------||
---------------------------|----------------------||
--0----4---2--0---2-0-L----|--L------L------------||
-------5-5------5---5-L----|--L------L\-----------||
---------------------------|----------------------||




Duration Legend
---------------
W - whole
H - half
Q - quarter
E - 8th
S - 16th
T - 32nd
X - 64th
. - note dotted
|-n-|  - n-tuplets


Tablature Legend
----------------
L - tied note
x - dead note
g - grace note
(n) - ghost note
> - accentuded note
NH - natural harmonic
AH - artificial harmonic
TH - tapped harmonic
SH - semi harmonic
PH - pitch harmonic
h - hammer on
p - pull off
b - bend
br - bendRelease
pb - preBend
pbr - preBendRelease
brb - bendReleaseBend
\n/ - tremolo bar dip
\n - tremolo bar dive
-/n - tremolo bar Release up
/n\ - tremolo bar inverted dip
/n - tremolo bar return
-\n - tremolo bar Release down
S - shift slide
s - legato slide
/ -  slide into from below or out of upwards
\ -  slide into from above or out of downwards
~ - vibrato
W - wide vibrato
tr - trill
TP - tremolo picking
T - tapping
S - slap
P - pop
< - fade in
^ - brush up
v - brush down
Login or Register to remove this ad.