Evening Star (Knuckles Chaotix) Guitar Tab

Submitted: Aug 24, 2018 by Prize (Last updated: Aug 25, 2018)

0
Download | No audio :(
Game: Knuckles Chaotix
Composer(s): Unknown
Style: Arrangement, Transcription
Series: Sonic the Hedgehog

AutoScroll: Slow | Medium | Fast
Knuckles Chaotix - Evening Star 
Tuning: Standard

Lead
-------------------------------------------------------
-------------------------------------------------------
-------------------------------------------------------
----------8----------10--10--10-12-10--8---------------
--8--10-------10-------------------------10------------
-------------------------------------------------------



-------------------------------------------------------
-------------------------------------------------------
---------------------10--12--10------------------------
----------8-----------------------13--12---------------
--8--10-------10---------------------------------------
-------------------------------------------------------




------------------------------------------------------------------
------------------------------------------------------------------
----------------10--8--7--8--7------------------------------------
--8------8--10------------------10--12-----12---------------------
-----10---------------------------------10--------10--12--13--15--   
------------------------------------------------------------------
Login or Register to remove this ad.