Ads

Spirit (Knights and Merchants: The Shattered Kingdom) Guitar Tab

Submitted: Apr 02, 2013 by KAT

5
Average: 5 (3 votes)
Download | Listen
Game: Knights and Merchants: The Shattered Kingdom
Composer(s): Gerd G√ľnter Hoffman, Jurgen Rebhann, Joachim Schafer, Steffen Schungel, Klaus Staendike
Style: Arrangement, Fingerstyle

AutoScroll: Slow | Medium | Fast
                                    Spirit                                      


                                                           Knights And Merchants
Guitar



     Q.     E  Q       H        Q       Q.     E  Q       H        Q     
E||--2------3--2----|--5--------5----|--0------2--0----|--3--------3----|
B||--3---------3----|--3--------3----|--2---------2----|--5--------2----|
G||-----------------|----------------|-----------------|----------------|
D||--0--------------|--0-------------|-----------------|----------------|
A||-----------------|----------------|--0--------------|--0-------------|
E||-----------------|----------------|-----------------|----------------|


  Q.     E  Q       Q.     E  Q       Q.     E  Q       H.            
---------0-------|--2------0-------|--2------3--2----|--0------------|
--3---------3----|--3---------3----|--3--------------|--2------------|
--2---------2----|-----------------|-----------------|---------------|
--0--------------|--0--------------|--0--------------|---------------|
-----------------|-----------------|-----------------|--0------------|
-----------------|-----------------|-----------------|---------------|


  Q.     E  Q       H        Q       Q.     E  Q       H        Q     
--2------3--2----|--5--------5----|--0------2--0----|--3--------3----|
--3---------3----|--3--------3----|--2---------2----|--2--------2----|
-----------------|----------------|--2--------------|----------------|
--0--------------|--0-------------|-----------------|----------------|
-----------------|----------------|--0--------------|--0-------------|
-----------------|----------------|-----------------|----------------|


  Q.     E  Q       Q.     E  Q       H        Q       H.            
-----------------|------------0----|----------------|---------------|
--0------2--3----|--2------3-------|--3--------2----|--3------------|
--0--------------|--2--------------|--2--------2----|--2------------|
--0--------------|-----------------|--0-------------|--0------------|
-----------------|--0--------------|-----------0----|---------------|
--3--------------|-----------------|----------------|---------------|


  ^                                                                      
  Q.     E  Q       H        Q       Q    E  E  E  E     Q    Q    Q     
--5------3--2----|--5--------2----|--0----------------|--3---------3----|
--3---------3----|--3--------3----|--2-------0--2--3--|--2----0----2----|
-----------------|----------------|--2----2-----------|------------2----|
--0--------------|--0-------------|-------------------|-----------------|
-----------------|----------------|--0----------------|--0--------------|
-----------------|----------------|-------------------|-----------------|


  Q    E  E  Q       Q.     E  Q       Q.     E  Q       H.            
----------0--2----|--5------3--2----|--5------3--2----|--0------------|
--3----3----------|--3--------------|--3--------------|--2------------|
--2---------------|-----------------|-----------------|---------------|
--0---------------|--0--------------|--0--------------|---------------|
------------------|-----------------|-----------------|--0------------|
------------------|-----------------|-----------------|---------------|


  ^                                                                         
  Q    E  E  Q       Q    Q    Q       E  E  E  E  E  E     Q    Q    Q     
--5----3--2-------|--5----3----2----|--0-----------0-----|--3--------------|
--3----------3----|--3--------------|--2-----2--3-----3--|--2----0----2----|
------------------|-----------------|--2--2--------------|------------2----|
--0---------------|--0--------------|--------------------|-----------------|
------------------|-----------------|--0-----------------|--0--------------|
------------------|-----------------|--------------------|-----------------|


  E  E  E  E  Q       E  E  E  E  Q       Q    Q    Q       H.            
-------------------|-----0-------------|-------2----0----|---------------|
--0--3--2--0-------|--2-----3--2-------|--3----3----2----|--3------------|
--0-----------0----|--2-----------2----|--2---------2----|--2------------|
--0----------------|-------------------|--0--------------|--0------------|
-------------------|--0----------------|------------0----|---------------|
--3----------------|-------------------|-----------------|---------------|


    E  E  E  E  E  E     E  E  E  E  E  E     E  E  E  E  E  E   
|---------------------|--------------------|--0-----------0-----|
|---3--------2--3-----|--0-----------0-----|-----------3-----3--|
|*--------4--------4--|--------0--------0--|--------0-----------|
|*-----4--------------|-----0-----0--------|-----2--------------|
|---2-----------------|--------------------|--------------------|
|---------------------|--3-----------------|--0-----------------|


  E  E  E  E  E  E     E  E  E  E  E  E     E  E  E  E  E  E   
--------------------|--2--------0--2-----|--------------------|
--2-----------2-----|--------3--------3--|--3-----------3-----|
--------2--------2--|-----2--------------|--------4--------4--|
-----2-----2--------|--0-----------------|-----4-----4--------|
--0-----------------|--------------------|--0-----------------|
--------------------|--------------------|--------------------|


  E  E  E  E  E  E     E  E  E  E  E  E     E  E  E  E  E  E   
--3--------2--3-----|--0-----------------|--5--------4--5-----|
--------5--------5--|--------------2-----|--------2--------2--|
-----4--------------|--------2--------2--|-----2--------------|
--------------------|-----2-----2--------|--4-----------------|
--------------------|--0-----------------|--------------------|
--0-----------------|--------------------|--------------------|


  E  E  E  E  E  E     E  E  E   E  E  E     E  E  E  E  E  E   
--2-----------2-----|--7------------7-----|--7-----------------|
--------2--------2--|--------9--10--------|--------------9-----|
-----2-----2--------|-----9------------9--|--------9--------9--|
--4-----------------|---------------------|-----9-----9--------|
--------------------|--7------------------|--7-----------------|
--------------------|---------------------|--------------------|


  E  E  E  E  E  E     E  E  E  E  E  E     E  E  E  E  E  E   
--5--------2--------|--------0-----------|-----------2--------|
--------3-----3-----|--0-----------2-----|--3-----3-----3-----|
-----2-----------2--|-----2-----2-----2--|-----2-----------2--|
--0-----------------|--------------------|--0-----------------|
--------------------|--0-----------------|--------------------|
--------------------|--------------------|--------------------|


  ^                 ^                                                    
  H.                Q.     E  Q       H        Q       Q    E  E  E  E   
--2-------------||--5------3--2----|--5--------2----|--0----------------|
--3-------------||--3---------3----|--3--------3----|--2-------0--2--3--|
--2------------*||-----------------|----------------|--2----2-----------|
--0------------*||--0--------------|--0-------------|-------------------|
----------------||-----------------|----------------|--0----------------|
----------------||-----------------|----------------|-------------------|


  Q    Q    Q       Q    E  E  Q       Q.     E  Q       Q.     E  Q     
--3---------3----|----------0--2----|--5------3--2----|--5------3--2----|
--2----0----2----|--3----3----------|--3--------------|--3--------------|
------------2----|--2---------------|-----------------|-----------------|
-----------------|--0---------------|--0--------------|--0--------------|
--0--------------|------------------|-----------------|-----------------|
-----------------|------------------|-----------------|-----------------|


                  ^                                                       
  H.              Q    E  E  Q       Q    Q    Q       E  E  E  E  E  E   
--0------------|--5----3--2-------|--5----3----2----|--0-----------0-----|
--2------------|--3----------3----|--3--------------|--2-----2--3-----3--|
---------------|------------------|-----------------|--2--2--------------|
---------------|--0---------------|--0--------------|--------------------|
--0------------|------------------|-----------------|--0-----------------|
---------------|------------------|-----------------|--------------------|


  Q    Q    Q       E  E  E  E  Q       E  E  E  E  Q       Q    Q    Q     
--3--------------|-------------------|-----0-------------|-------2----0----|
--2----0----2----|--0--3--2--0-------|--2-----3--2-------|--3----3----2----|
------------2----|--0-----------0----|--2-----------2----|--2---------2----|
-----------------|--0----------------|-------------------|--0--------------|
--0--------------|-------------------|--0----------------|------------0----|
-----------------|--3----------------|-------------------|-----------------|


  H.              E  E  E  E  E  E     E  E  E  E  E  E     E  E  E  E  E  E   
---------------|--------------------|--------------------|--0-----------0-----|
--3------------|--3--------2--3-----|--0-----------0-----|-----------3-----3--|
--2------------|--------4--------4--|--------0--------0--|--------0-----------|
--0------------|-----4--------------|-----0-----0--------|-----2--------------|
---------------|--2-----------------|--------------------|--------------------|
---------------|--------------------|--3-----------------|--0-----------------|


  E  E  E  E  E  E     E  E  E  E  E  E     E  E  E  E  E  E   
--------------------|--2--------0--2-----|--------------------|
--2-----------2-----|--------3--------3--|--3-----------3-----|
--------2--------2--|-----2--------------|--------4--------4--|
-----2-----2--------|--0-----------------|-----4-----4--------|
--0-----------------|--------------------|--0-----------------|
--------------------|--------------------|--------------------|


  E  E  E  E  E  E     E  E  E  E  E  E     E  E  E  E  E  E   
--3--------2--3-----|--0-----------------|--5--------4--5-----|
--------5--------5--|--------------2-----|--------2--------2--|
-----4--------------|--------2--------2--|-----2--------------|
--------------------|-----2-----2--------|--4-----------------|
--------------------|--0-----------------|--------------------|
--0-----------------|--------------------|--------------------|


  E  E  E  E  E  E     E  E  E   E  E  E     E  E  E  E  E  E   
--2-----------2-----|--7------------7-----|--7-----------------|
--------2--------2--|--------9--10--------|--------------9-----|
-----2-----2--------|-----9------------9--|--------9--------9--|
--4-----------------|---------------------|-----9-----9--------|
--------------------|--7------------------|--7-----------------|
--------------------|---------------------|--------------------|


                                                                 ^              
  E  E  E  E  E  E     E  E  E  E  E  E     E  E  E  E  E  E     H.             
--5--------2--------|--------0-----------|-----------2--------|--2------------||
--------3-----3-----|--0-----------2-----|--3-----3-----3-----|--3------------||
-----2-----------2--|-----2-----2-----2--|-----2-----------2--|--2------------||
--0-----------------|--------------------|--0-----------------|--0------------||
--------------------|--0-----------------|--------------------|---------------||
--------------------|--------------------|--------------------|---------------||




Duration Legend
---------------
W - whole
H - half
Q - quarter
E - 8th
S - 16th
T - 32nd
X - 64th
. - note dotted
|-n-|  - n-tuplets


Tablature Legend
----------------
L - tied note
x - dead note
g - grace note
(n) - ghost note
> - accentuded note
NH - natural harmonic
AH - artificial harmonic
TH - tapped harmonic
SH - semi harmonic
PH - pitch harmonic
h - hammer on
p - pull off
b - bend
br - bendRelease
pb - preBend
pbr - preBendRelease
brb - bendReleaseBend
\n/ - tremolo bar dip
\n - tremolo bar dive
-/n - tremolo bar Release up
/n\ - tremolo bar inverted dip
/n - tremolo bar return
-\n - tremolo bar Release down
S - shift slide
s - legato slide
/ -  slide into from below or out of upwards
\ -  slide into from above or out of downwards
~ - vibrato
W - wide vibrato
tr - trill
TP - tremolo picking
T - tapping
S - slap
P - pop
< - fade in
^ - brush up
v - brush down
Login or Register to remove this ad.

3 comments on Spirit

The beginning sounds like

The beginning sounds like Mozart's Piano Sonata No. 11

Wow! Didn`t know that. You

Wow! Didn`t know that.

You can listen music from game here: http://www.youtube.com/watch?v=DMvAzMCgsTM

shame there aren't more of

shame there aren't more of these, the game itself was slow, but the soundtrack was amazing.