Ads

Upon the Melodies of the Moon (KiRite) Guitar Tab

Submitted: Aug 03, 2011 by BluePhoenix

0
Download | Listen
Game: KiRite
Composer(s): Yasunori Mitsuda
Style: Arrangement, Artificial harmonics, Fingerstyle

AutoScroll: Slow | Medium | Fast
Upon the Melodies of the Moon
by Yasunori Mitsuda
from Kirite



E|-----------------4----4----|-3-------------------|------4----6-4-3---------|--------4----9----9----|
B|---------4-----------------|------4---------4----|-3-----------------------|-4------4--------------|
G|-3--------------------6----|-----------3---------|-------------------------|-3----------------6----|
D|-3-----------3-------------|---------------------|-------------------------|-5---------------------|
A|-----x---------------------|---------------------|------6-------------5----|-3---------------------|
E|-----x---4------------4----|-----------3---------|-------------------------|-----------------------|


E|-8----6----4----8----|-----4---6--------------------|-------------------------4-------|
B|-----------4---------|------------------------------|-----------------4-----------4---|
G|----------------5----|------------------------------|---------3-----------------------|
D|---------------------|-----3---------------6-3h5----|---------3-----------3-----------|
A|---------------------|-----------------6------------|---------5---x-------------------|
E|---------------------|-------------6----------------|-------------x---4---------------|


E|-4----3--------------|-----------------4------6-4-3-------|------------------4------9----|
B|---------6g4---------|-4-------3--------------------------|-----3---4--------4-----------|
G|-6--------------3----|------------------------------------|-3-------3---------------8----|
D|----------------3----|--------------------------------3---|---------5---------------6----|
A|---------------------|------------------------------------|---------3--------------------|
E|-4--------------3----|------------------------------------|------------------------------|


E|---9-------8----6----4----|-8-----4---6---------------|---------------3----6-----------|
B|---------------------4----|-------6-------------------|-11-----------------------------|
G|---8-------8--------------|-------------------10------|-----10--------5----------------|
D|-----------6---------6----|---------------8-------8---|--------------------------------|
A|--------------------------|---------------------------|---------------x---------------|
E|---9----------------------|---------------------------|--------------------------------|


E|-3----------3-----------------------------|----3-------6----11---10---|----------------------3----|
B|--------6----6g4--6-----------------------|--------4--------11--------|----11---------------------|
G|----------------------3-------------------|----5----------------------|----10----------------5----|
D|------------------------------------------|---------------------------|----8---------12-----------|
A|--------6---------------------------------|---------------------------|----10----10------10--x----|
E|------------------------------------------|---------------------------|---------------------------|

											      NH	
E|-3--6--------------3----------3----------|---------------3-----------------|-----------------5----3------|
B|-------------------------6--------6g4-6--|---------------------6---8-------|------------7----5--------4--|
G|-5-----------------------3---------------|-3-------------------------------|----------------------5------|
D|-------------------------5---------------|---------------------------------|-----------------------------|
A|-x-----------------------6---------------|---------------------------------|----------------------x------|
E|-----------------------------------------|---------------------------------|------------5----------------|


E|----6---------------3----------3------------|-----------------------3-------6---------|
B|-4-------------------------6------4--6------|---------------------------4---------4---|
G|-----------------------------------------3--|-----------------------5-----------------|
D|-----------------------------------------3--|-----------------------------------------|
A|---------------------------6----------------|-----------------------------------------|
E|--------------------------------------------|-----------------------------------------|

E|-11------13------10--------|---------3----6-------------3--|-L--------3--------------------|
B|-11------------------------|-------------------------------|-----6-----6g4--6-----------4--|
G|-12--------------12--------|-----12--5---------------------|--------------------3----------|
D|---------------------------|-12----------------------------|-------------------------------|
A|-----------------10----10--|---------x---------------------|-----6-------------------------|
E|---------------------------|-------------------------------|----------------------------4--|


E|------------------------|-----------------------|----4------4--4----3--------------|
B|-L----6----6----4----L--|-L----------------4----|-L-------------------------4------|
G|------4----4------------|-------3-----3---------|----------------------------------|
D|------------------------|-------3---------------|----------------------------------|
A|----------------6----L--|-L---------------------|----------------------------------|
E|-L----------------------|------------------4----|-L------------4-------------------|


E|----------------------4--------|-6-4-3----3--------------------4------|----9---------9---------8----6----|
B|-4----------4----3-------------|-----------------------4-------4------|----------------------------------|
G|----3----3---------------------|-----------------------3--------------|----------------------------------|
D|----3--------------------------|--------------------------------------|----------------------------------|
A|-------------------------------|--------------------------------------|----------------------------------|
E|----3--------------------------|--------------------------------------|----------------------------------|

								AH  AH     AH        AH
E|-6--4---------8---------------4-----6----|-L---------------------------|-18------------------------------------|
B|------------------------------4----------|-------------------20---18---|-----------20--------------------------|
G|-----------------------------------------|-----------------------------|---------------------------------------|
D|-----------------------------------------|-----------------------------|---------------------------------------|
A|-----------------------------------------|-----------------------------|---------------------------------------|
E|-----------------------------------------|-----------------------------|---------------------------------------|



Login or Register to remove this ad.