Ads

Prayer Tree (KiRite) Guitar Tab

Submitted: Feb 08, 2011 by BluePhoenix

4
Average: 4 (2 votes)
Download | Listen
Game: KiRite
Composer(s): Yasunori Mitsuda
Style: Arrangement, Fingerstyle

AutoScroll: Slow | Medium | Fast
Title: Prayer Tree
Artist: Yasunori Mitsuda
Tabbed By BluePhoenix
2/6/11 


Track 1: Track 2

E|---------------------------------|---------------------------------|-7-------------------------------|
B|-----------------9---------------|-----------------9-------12--10--|-----------------9---------------|
G|---------8---9-----------8---9---|---------8---9-------------------|---------8---9-----------8---9---|
D|-----9---------------9-----------|-----9---------------9-----------|-----9---------------9-----------|
A|-7-------------------------------|-7-------------------------------|-7-------------------------------|
E|---------------------------------|---------------------------------|---------------------------------|


E|-----------------------------12--|-12----------------------11--12--|-7-----------7-------------------|
B|-----------------9-------12--10--|-----------------9---------------|-----------------9-------12--10--|
G|---------8---9-------------------|---------8---9-----------8---9---|---------8---9-------------------|
D|-----9---------------9-----------|-----9---------------9-----------|-----9---------------9-----------|
A|-7-------------------------------|-7-------------------------------|-7-------------------------------|
E|---------------------------------|---------------------------------|---------------------------------|


E|-7-------------------------------|-------------------------7-------|-12----------------------11--12--|
B|-----------------9---------------|-----------------9-----------10--|-----------------9---------------|
G|---------8---9-------9---8---9---|-6-------8---9-------------------|---------8---9-----------8---9---|
D|-----9---------------9-----------|-----9---------------9-----------|-----9---------------9-----------|
A|-7-------------------------------|-7-------------------------------|-7-------------------------------|
E|---------------------------------|---------------------------------|---------------------------------|


E|-7-------------------------------|-7---------------------------------|-------------------------7-------|
B|-----------------9-------12--10--|-----------------9-----------------|-----------------9-----------10--|
G|---------8---9-------------------|---------8---9-------9---8---9--8--|-6-------8---9-------------------|
D|-----9---------------9-----------|-----9---------------9-------------|-----9---------------9-----------|
A|-7-------------------------------|-7---------------------------------|-7-------------------------------|
E|---------------------------------|-----------------------------------|---------------------------------|


E|---------------------------------|-------------------------7-------|---------------------------------|
B|-----------------9---------------|-----------------9-----------10--|-12--12------12--9---12------12--|
G|---------8---9-----------8---9---|---------8---9-------9-----------|---------8---9-----------8---9---|
D|-9---9-------9-------9-------9---|-9---9-------9-------9-----------|-----9---------------9-----------|
A|-7-------------------------------|-7-------------------------------|-7-------------------------------|
E|---------------------------------|---------------------------------|---------------------------------|


E|---------------------------------|-----------------7---5---------------|-------------------------------------------|
B|-12--12------12--9---12--12--10--|-----------------9-------------9-----|-10--12-10-9--10-------9-----------12--10--|
G|---------8---9-------------------|---------8---9-----------8-----9-----|-----------8-----9-------------------------|
D|-----9---------------9-----------|-----9---------------9---------------|-----9-----------------------9-------------|
A|-7-------------------------------|-7-----------------------------------|-7-----------------------------------------|
E|---------------------------------|-------------------------------------|-------------------------------------------|


E|-----------------7---5---------------|---------------------------7---5---|-----------------7---5---------------|
B|-----------------9-------------9-----|-7---9--7------5---9---------------|-----------------9-------------9-----|
G|---------8---9-----------8-----9-----|-----------8---9-------------------|---------8---9-----------8-----9-----|
D|-----9---------------9---------------|-----9-----------------9-----------|-----9---------------9---------------|
A|-7-----------------------------------|-7---------------------------------|-7-----------------------------------|
E|-------------------------------------|-----------------------------------|-------------------------------------|


E|---------------------------------------|-------------12------11--11------|-11--------------9-------7-9-7-------|
B|-10--12-10-9--10-----9---------12--10--|---------10------9-------10------|-----------------9---------------10--|
G|-----------8-----9---------------------|---------8---9-----------8---9---|---------8---9-----------------------|
D|-----9---------------------9-----------|-9---9---------------9-----------|-----9---------------9---------------|
A|-7-------------------------------------|-7-------------------------------|-7-----------------------------------|
E|---------------------------------------|---------------------------------|-------------------------------------|


E|-7------|---------------------------------|---------------------------------|--------|
B|--------|-------------9---10--9-----------|-------------9---10--9-----------|--------|
G|--------|---------8---------------9-------|---------8---------------9-------|--------|
D|--------|-----9-----------------------9---|-----9-----------------------9---|--------|
A|-7------|-7-------------------------------|---------------------------------|-7------|
E|--------|---------------------------------|-9-------------------------------|-0------|



Login or Register to remove this ad.

1 comment on Prayer Tree

Put a capo at fourth bar and

5

Put a capo at fourth bar and play it like C major then it's pretty easy and a very nice piece.