Ads

Treat Land (Kirby's Epic Yarn) Guitar Tab

Submitted: Apr 21, 2013 by hslesperance

0
Download | Listen
Game: Kirby's Epic Yarn
Composer(s): Jun Ishikawa, Hirokazu Ando, Tomoya Tomita
Style: Arrangement, Fingerstyle
Series: Kirby

AutoScroll: Slow | Medium | Fast
Treat Land
Kirby's Epic Yarn
Composed by Tomoya Tomita
Tabbed by hslesperance
4/21/13


Standard Tuning

  E  E   Q    Q     E  E   Q    Q     E  E   Q    Q     E  E   Q    Q
|-----------------|-----------------|-----------------|-----------------|
|-----------------|-----------------|-----------------|-----------------|
|--------5----5---|--------4----4---|--------5----5---|--------4----0---|
|----5--(5)--(5)--|----5--(5)--(5)--|----5--(5)--(5)--|----5--(5)--(5)--|
|-3-(3)-(3)--(3)--|-3-(3)-(3)--(3)--|-3-(3)-(3)--(3)--|-3-(3)-(3)--(3)--|
|-----------------|-----------------|-----------------|-----------------|


  H.          H.          H     Q    H     Q
|-0---------|-3---------|-1--------|-0---------|
|-----1--1--|-----0--0--|----1--3--|----0--1---|
|-----0--0--|-----0--0--|----0--0--|----0--0---|
|-----------|-----------|----------|-----------|
|-3---------|-3---------|-3--------|-3---------|
|-----------|-----------|----------|-----------|
  Q   Q  Q    Q   Q  Q    Q  Q  Q    Q  Q  Q


  H.          H.          H.          H     Q
|-----------|-----------|-----------|-----------|
|-0---0--0--|-1---1--1--|-0---0--0--|-1--1--1---|
|-----0--0--|-----2--2--|-----0--0--|----2--0---|
|-----------|-----------|-----------|-----------|
|-----------|-----------|-----------|-----------|
|-1---------|-1---------|-1---------|-1---------|
  Q   Q  Q    Q   Q  Q    Q   Q  Q    Q  Q  Q


  H.          H.          H     Q    H     Q
|-0---------|-3---------|-1--------|-0---------|
|-----1--1--|-----0--0--|----1--3--|----0--1---|
|-----0--0--|-----0--0--|----0--0--|----0--0---|
|-----------|-----------|----------|-----------|
|-3---------|-3---------|-3--------|-3---------|
|-----------|-----------|----------|-----------|
  Q   Q  Q    Q   Q  Q    Q  Q  Q    Q  Q  Q


   H.             H       Q      H.          H.
|--------------|---------10--|--12-------|--10-----|
|-12-----------|-13----------|-^10-------|-(10)----|
|--------------|-------------|-^10-------|-(10)----|
|-------9---9--|-----10--10--|-^10-------|-(10)----|
|--8---10--10--|--8--12--12--|-----------|---------|
|--------------|-------------|-----------|---------|
   Q    Q   Q     Q   Q   Q      H.         +H.


  H.             H.             H       E E   H.
|--------------|-3------------|-------------|---------------|
|-1------------|--------------|-0-------1-3-|-1-------------|
|--------2---2-|--------2---2-|---------2---|----------2----|
|------2---2---|------2---2---|-----2-3---3-|------2-3---3--|
|-3--3---------|-3--3---------|---3---------|----3----------|
|--------------|--------------|-1-----------|-1-------------|
  E  E E E E E   E  E E E E E   E E E E E E   E  E E E E E


  H.             H.             H       Q     H       E E
|--------------|-3------------|-3-------1---|-5------------|
|-1------------|--------------|-------------|---------1-3--|
|--------2---2-|--------2---2-|---------2---|---------2----|
|------2---2---|------2---2---|-----2-3---3-|-----2-3---3--|
|-3--3---------|-3--3---------|---3---------|---3----------|
|--------------|--------------|-1-----------|-1------------|
  E  E E E E E   E  E E E E E   E E E E E E   E E E E E E


  H.          H.          H.          Q   Q  Q
|-0---------|-3---------|-5---------|-0---1--3---|
|-1---------|-----------|-----------|-2----------|
|------0----|-0----0----|-2----2----|-----2------|
|----2------|----2------|----2------|---2--------|
|-3---------|-3---------|-0---------|-0----------|
|-----------|-----------|-----------|------------|
  E  E H      E  E H      E  E H      E E H


  Q   Q  Q    Q   Q  Q    H      E E   H.
|-3---1-----|--------1--|-0----------|-----------|
|-3------1--|-----1--3--|-1------3-1-|-3---------|
|-----2-----|-2---2-----|-----0------|-4---------|
|---2-------|---2-------|---2--------|------5----|
|-0---------|-0---------|-3----------|----5------|
|-----------|-----------|------------|-3---------|
  E E H       E E Q  Q    E E H        E  E H


  H.          H.          H     Q    Q  Q  Q
|-----------|-3---------|-6-----5--|-0--1--3---|
|-1---------|-1---------|----------|-2---------|
|--------0--|--------0--|-3-----2--|-----------|
|-----2-----|-----2-----|----2-----|-------2---|
|-3---------|-3---------|-4--------|-0--4------|
|-----------|-----------|----------|-----------|
  Q   Q  Q    Q   Q  Q    Q  Q  Q    Q  Q  Q


  H     Q    H.        Q  Q  Q    Q   Q  Q
|-3-----1--|-8-------|-4--6--8--|-8---6--4---|
|-3--------|---------|----------|-4----------|
|----------|---------|-5--------|------------|
|-------0--|-7-------|----------|------------|
|----0-----|---------|-3--------|------------|
|-1--------|---------|----------|------------|
  Q  Q  Q              Q  H       H.


  H.          H.          H.          H    Q    H.
|-3---------|-6---------|-5---------|-8----7--|-8-----*|
|-----------|-----------|-----------|---------|-8-----*|
|-----------|-0---------|-----------|-5-------|-9-----*|
|-2---------|-----------|-7---------|-5-------|-------*|
|-3------3--|-5------5--|-5---------|------7--|-------*|
|-----3-----|-----6-----|-----8--7--|---------|-8-----*|
  Q   Q  Q    Q   Q  Q    Q   Q  Q    H    Q    H.

H - half
Q - quarter
E - 8th
+ - note tied to previous
. - note dotted

Low melody durations appear below the staff
Login or Register to remove this ad.