Grass Land (Kirby's Epic Yarn) Guitar Tab

Submitted: Feb 26, 2013 by ChelseaRare

4.75
Average: 4.8 (4 votes)
Download | Listen
Game: Kirby's Epic Yarn
Composer(s): Jun Ishikawa, Hirokazu Ando, Tomoya Tomita
Style: Arrangement, Fingerstyle, Natural harmonics
Series: Kirby

AutoScroll: Slow | Medium | Fast
Kirby's Epic Yarn
Grass Land       
Composed by Tomoya Tomita                             
Arranged by Chelsea Intal
2/25/13


Standard Tuning EADGBe
120BPM

                                                     ^       ^  ^       ^   
     E  Q    Q    Q    E     E  Q    Q    Q    E     E  Q    E  E  Q    E   
E||-----------------------|-----------------------|--4-------4--2-------4--|
B||-----------------------|--------------------0--|--0-------0--0-------0--|
G||-----------------------|-----------------------|------------------------|
D||-----2----2----2----2--|-----2----2----2----2--|-----2----2-----2-------|
A||--2--------------------|--2--------------------|--2---------------------|
E||-----------------------|-----------------------|------------------------|


  ^       ^  ^       ^     ^                                               
  E  Q    E  E  Q    E     E  Q    Q    Q    E     E  E  E  E  E  Q    E   
--0-------0----------0--|-----------------------|-------------------------|
--0-------0--4-------0--|--2--------------------|--------2-----0-------0--|
-------------4----------|--4--------------------|--2----------------------|
-----2----2-----2----2--|-----2----2----2----2--|-----------------1----1--|
------------------------|--0--------------------|-----4-----4--2----------|
--4---------------------|-----------------------|--2----------------------|


  ^       ^  ^       ^     ^       ^  ^       ^     ^               ^  ^   
  E  Q    E  E  Q    E     E  Q    E  E  Q    E     E  Q    Q    E  E  E   
--4-------4--2-------4--|--0-------0----------0--|------------------------|
--0-------0--0-------0--|--0-------0--4-------0--|--2---------------2--4--|
------------------------|-------------4----------|--4---------------4--4--|
-----2----2-----2-------|-----2----2-----2----2--|-----2----2----2-----2--|
--2---------------------|------------------------|--0---------------------|
------------------------|--4---------------------|------------------------|


  ^     ^     ^     ^                                 
  E  E  E  E  E  E  E  E     E  E  E  E  E  E  E  E   
--0-----------0-----2-----|--------0-----2-----0-----|
--0-----4-----0-----0-----|--------------------------|
--------4-----------------|--------------------------|
-----2-----2-----2-----2--|-----2-----2-----2-----2--|
--------------------------|--0-----------0-----------|
--2-----------4-----------|--------------------------|


  E  E  E  E  E  E  E  E     E  E  E  E  E  E  E  E   
--0-----------------------|--------------0-----------|
--------4-----2-----4-----|--0-----4-----------4-----|
--------------------------|--------------------------|
-----1-----1-----1-----1--|--------------------------|
--2-----------2-----------|-----6-----6-----6-----6--|
--------------------------|--4-----------4-----------|


  E  E  E  E  E  E  E  E     E  E  E  E  E  E  E  E   
--------------------------|--------0-----2-----0-----|
--2-----0-----------------|--2-----------------------|
--------------2-----1-----|--------------------------|
-----2-----2-----2-----2--|-----2-----2-----2-----2--|
--4-----------4-----------|--0-----------0-----------|
--------------------------|--------------------------|


  E  E  E  E  E  E  E  E     E  E  E  E  E  E  E  E   
--0-----------------------|--------------0-----------|
--------4-----3-----4-----|--0-----4-----------4-----|
--------------------------|--------------------------|
-----1-----1-----1-----1--|--------------------------|
--2-----------2-----------|-----6-----6-----6-----6--|
--------------------------|--4-----------4-----------|


  E  E  E  E  E  E  E  E     E  Q    E  E  Q    E     E  E  E  E  E  E  E  E   
--------0-----2-----4-----|--4-------2--5----------|--------------------0-----|
--2-----------------------|------------------------|--------2-----4-----------|
--------------------------|------------------------|--------------------------|
-----2-----2-----2-----2--|------------------------|--------------------------|
--4-----------4-----------|-----2----2-----2----2--|-----4-----4-----4-----4--|
--------------------------|--0----------0----------|--2-----------2-----------|


                                                   ^                  
  E  Q    E  E  Q    E     H        H              W                  
--4-------2--5----------|-----------4--------|--<>12----------------||
------------------------|--------------------|--<>12----------------||
------------------------|--2-----------------|----------------------||
-----2----2-----2----2--|--2-----------------|----------------------||
------------------------|--0-----------------|----------------------||
--4----------4----------|--------------------|-----0----------------||




Duration Legend
---------------
W - whole
H - half
Q - quarter
E - 8th
S - 16th
T - 32nd
X - 64th
. - note dotted
|-n-|  - n-tuplets


Tablature Legend
----------------
L - tied note
x - dead note
g - grace note
(n) - ghost note
> - accentuded note
NH - natural harmonic
AH - artificial harmonic
TH - tapped harmonic
SH - semi harmonic
PH - pitch harmonic
h - hammer on
p - pull off
b - bend
br - bendRelease
pb - preBend
pbr - preBendRelease
brb - bendReleaseBend
\n/ - tremolo bar dip
\n - tremolo bar dive
-/n - tremolo bar Release up
/n\ - tremolo bar inverted dip
/n - tremolo bar return
-\n - tremolo bar Release down
S - shift slide
s - legato slide
/ -  slide into from below or out of upwards
\ -  slide into from above or out of downwards
~ - vibrato
W - wide vibrato
tr - trill
TP - tremolo picking
T - tapping
S - slap
P - pop
< - fade in
^ - brush up
v - brush down
Login or Register to remove this ad.

2 comments on Grass Land

This is awesome!

5

This is awesome!

This is great.

5

This is great.