Ads

Butter Building (Kirby's Epic Yarn) Guitar Tab

Submitted: Feb 24, 2013 by ChelseaRare

5
Average: 5 (4 votes)
Download | Listen
Game: Kirby's Epic Yarn
Composer(s): Jun Ishikawa, Hirokazu Ando, Tomoya Tomita
Style: Arrangement, Fingerstyle
Series: Kirby

AutoScroll: Slow | Medium | Fast
Kirby's Epic Yarn
Butter Building  
Composed by Hirokazu Ando                               
Arranged by Chelsea Intal

Standard Tuning EADGBe

     E  E  E  Q    E  Q       E  E  E  E  E  E  E  E     Q    E  Q    E  E  E   
E||--0----------------0----|--L-----------0-----------|--1-------0-------1-----|
B||-----------3------------|-----3--------------3-----|------------------------|
G||--0-----0--2-------0----|--L--0-----0--2-----------|----------3----0--3-----|
D||-----3----------3-------|--------3--------3--------|--0----3-------------0--|
A||------------------------|--------------------3-----|------------------------|
E||--1---------------------|-----------------------1--|------------------------|


  E  E  E  E  E  Q.        Q    E  Q    E  Q       E  E  E  E  E  E  E  E   
-----0------------------|--0---------------0----|--L-----1-----0-----------|
--------------1---------|----------3------------|-----1--------------3-----|
-----3--0--3------------|----------2------------|-----------0--------------|
--L---------------------|---------------3-------|-----------------3--------|
------------------------|-------3---------------|--------------------------|
-----------------0------|--1--------------------|-----1-----------------1--|


                             ^                                            
  Q    E  Q    E  Q       E  H        Q.        S E  S E  E  E  E  E  E   
--1-------0-------1----|--L--8--------L------|--0-0----0-----------------|
-----------------------|---------------------|-------3----3--1-----------|
----------3----0-------|-----0--------L------|------------------2--------|
-------2---------------|-----8--------L------|------------2--------2--3--|
--1--------------------|---------------------|---------------------------|
-----------------------|---------------------|--1---------------1--3--1--|


  Q    E  Q    E  E  E     S E  S E  E  E  E  E  E     Q    E  Q    E  E  E   
------------------------|---------------------------|------------------------|
------------------------|------------------------3--|--1---------------------|
--2------------------2--|--3-3--2-3--2--0--2--3-----|--3---------------------|
------------------3-----|------------------0--------|--2---------------------|
--3----3-------3--------|---------------------------|----------3----------0--|
----------1-------------|--3------------------------|-------1-------1--3-----|


  S E  S E  E  E  E  E  E     E  E  E  Q    E  E  E   
--0-0----0-----------------|-------------------------|
-------3----3--1-----1-----|-------------------------|
------------2-----2--------|--2--0-------------------|
---------------------2--3--|--------3--2----3-----3--|
---------------------------|--3----------------3-----|
--1---------------1--------|-------------------------|


  S E  S E  E  E  E  E  E     E  E  E  E  H           Q    E  Q    E  E  E   
---------------------------|--0-----1-----3--------|------------------------|
------------------------3--|-----3-----------------|------------------------|
--3-3--2-3--2--0--2--3-----|--------------3--------|-------3--2----------0--|
------------------0--------|-----3-----------------|--0------------2--3-----|
---------------------------|-----------3-----------|--1---------------------|
--3------------------------|-----------------------|------------------------|


  E  E  E  E  E  E  E  E     H        E  E  E  E     W                 
--------------------------|-----------------------|-------------------|
--------------------------|-----------------------|-------------------|
--2-----------------------|--0--------L-----------|-------------------|
--3-----3-----0-----2--3--|--2--------L--2--------|-------------------|
-----1-----1-----1--------|-----------------3--0--|--3----------------|
--------------------------|-----------------------|--3----------------|


  H        E  E  E  E     Q    Q    Q    Q       Q.     S S E  E  Q     
-----------------------|----------------------|------------------------|
-----------------------|----------------------|------------------------|
-----------------------|----------------------|------------------------|
-----------------0--2--|--3----0--------------|-------------------0----|
--1--------L--3--------|------------1---------|--0--------0-1----------|
-----------------------|-----------------3----|---------3------3-------|


  Q    Q    H           Q    E  Q    E  E  E     E  E  E  E  E  E  E  E   
------------3--------|--5------------------0--|--------0-----------5-----|
---------------------|--6----6-------8--6-----|--------------6-----------|
---------------------|----------7-------------|--7-----------------------|
-------2-------------|--8---------------------|--8--8-----8-----8-----8--|
--3------------------|------------------------|--------------------------|
---------------------|------------------------|--------------------------|


  Q.     Q    E  E  E     Q.     Q    E  E  E     Q    E  Q    E  E  E   
--3-----------0--------|-----------------------|---------------------0--|
--5--------------1-----|--1--------------------|------------------3-----|
---------0----------2--|--------------0--------|--3------------5--------|
---------0-------------|---------2-------------|--3----0--3-------------|
-----------------------|---------0-------------|------------------------|
-----------------------|---------0-------0--3--|--1---------------------|


  E  E  E  E  Q    Q       Q    E  Q    E  E  E     W                  
--1----------------3----|--1---------------0--1--|--8----------------||
-----------1--3---------|---------------3--------|-------------------||
-----0--3---------------|--2---------------------|--5----------------||
--0---------------------|-------0--3-------------|-------------------||
------------------------|--3---------------------|-------------------||
--3---------------------|------------------------|-------------------||




Duration Legend
---------------
W - whole
H - half
Q - quarter
E - 8th
S - 16th
T - 32nd
X - 64th
. - note dotted
|-n-|  - n-tuplets


Tablature Legend
----------------
L - tied note
x - dead note
g - grace note
(n) - ghost note
> - accentuded note
NH - natural harmonic
AH - artificial harmonic
TH - tapped harmonic
SH - semi harmonic
PH - pitch harmonic
h - hammer on
p - pull off
b - bend
br - bendRelease
pb - preBend
pbr - preBendRelease
brb - bendReleaseBend
\n/ - tremolo bar dip
\n - tremolo bar dive
-/n - tremolo bar Release up
/n\ - tremolo bar inverted dip
/n - tremolo bar return
-\n - tremolo bar Release down
S - shift slide
s - legato slide
/ -  slide into from below or out of upwards
\ -  slide into from above or out of downwards
~ - vibrato
W - wide vibrato
tr - trill
TP - tremolo picking
T - tapping
S - slap
P - pop
< - fade in
^ - brush up
v - brush down
Login or Register to remove this ad.