Ads

Apt. 102 (Kirby's Epic Yarn) Guitar Tab

Submitted: Apr 25, 2021 by H.F. (Last updated: Apr 30, 2021)

5
Average: 5 (1 vote)
Download | Listen
Game: Kirby's Epic Yarn
Composer(s): Jun Ishikawa, Hirokazu Ando, Tomoya Tomita
Style: Arrangement, Fingerstyle
Series: Kirby

Click here for a video example.

AutoScroll: Slow | Medium | Fast
Title: Apt. 102
Album: Kirby's Epic Yarn
Music: Tomoya Tomita
Tabber: H.F.

Tempo = 78

Legend
L - tied note


E ||-5-----5--------5-----5----|-----5-----5--5-----5-------|
B ||-3-----3--------3-----3----|-----3-----3--3-----3-------|
G ||o4-----4--------4-----4----|-----4-----4--4-----4-------|
D ||o--------------------------|----------------------------|
A ||---------------------------|----------------------------|
E ||-3-----------3-------------|--3-----------3-------------|


--5-----5--------5-----5----|-----5-----5--5-----5------|||
--2-----2--------2-----2----|-----2-----2--2-----2------|||
--4-----4--------4-----4----|-----4-----4--4-----4-----o|||
----------------------------|--------------------------o|||
--0-----------0-------------|--0-----------0------------|||
----------------------------|---------------------------|||


-2--------------0-----5----|----------------------------|
-3-----3--------3----------|-----5--------------5-------|
o4-----4--------4----------|-----6--------------6-------|
o--------------------------|----------------------------|
---------------------------|--0--------0--0-------------|
-3-----------3-------------|----------------------------|


----------------------------|--------0-----------2-------|
--------3-----------3-------|-----2-----4L-4-------------|
-----2-----------4----------|--2--------4L-4-------------|
--4--------5L-5-------------|----------------------------|
--5-------------------------|-----------2L-2--2----------|
-----------0L-0-------------|--2-------------------------|


--2--------------0-----5----|--------------------7-------|
--3-----3--------3----------|-----5--------------5-------|
--4-----4--------4----------|-----6--------------6-------|
----------------------------|----------------------------|
----------------------------|--0--------0--0-------------|
--3-----------3-------------|----------------------------|


--5-------------------------|----------------------------|
--2-----2-----5--------4----|----------------------------|
--2-----2--------2----------|-----------5--------4-------|
-----------------2----------|-----4-----4--------4-------|
----------------------------|--2-----------2-------------|
--2-----------2-------------|----------------------------|


--2-----3-------------------|----------------------------|
--3--------0----------------|-----0-----0--------3-------|
--4--------0-----0-----0----|-----0-----0--------4-------|
----------------------------|----------------------------|
----------------------------|----------------------------|
--0-----------0-------------|--0-----------0-------------|


--2-----3-------------------|--------------0-------------|
--3--------0----------------|-----0-----0--0-------------|
--4--------0-----0-----0----|-----0-----0--0-------------|
----------------------------|----------------------------|
--0-----------0-------------|--0-----------------0-------|
----------------------------|----------------------------|


--------0-----0--------0----|-----0----------------------|
--3-----3--------3-----3----|-----3-----3--3-------------|
--2-----2--------2-----2----|-----2-----2--2-----2-------|
--0--------0--0-------------|--0--------0--0-------------|
----------------------------|----------------------------|
----------------------------|----------------------------|


--------0-----0--------0----|-----0--------------2------||
--3-----3--------3-----3----|-----3-----3--3------------||
--2-----2--------2-----2----|-----2-----2--2-----------o||
--0--------0--0-------------|--0--------0--0-----------o||
----------------------------|---------------------------||
----------------------------|---------------------------||


--5-----5--------5-----5----|-----5--------5-----5-------|
--3-----3--------3-----3----|-----3--------3-----3-------|
--4-----4--------4-----4----|-----4--------4-----4-------|
----------------------------|----------------------------|
----------------------------|----------------------------|
--3-----------3-------------|--3-----------3-------------|


--5-----5--------5-----5----|-----5-----5--------5-------|
--0-----2--------0-----2----|-----0-----2--------0-------|
--0-----0--------0-----0----|-----0-----0--------0-------|
----------------------------|----------------------------|
--0-----------0-------------|--0-----------0-------------|
----------------------------|----------------------------|


--2-----3--2-----3-----2----|-----3-----2--------3-------|
--3-----3--------3-----3----|-----3-----3--------3-------|
----------------------------|----------------------------|
----------------------------|----------------------------|
----------------------------|----------------------------|
--3-----------3-------------|--3-----------3-------------|


--2-----3--2-----3-----5----|----------------------------||
--0-----2--------0-----2----|-----0----------------------||
--0-----0--------0-----0----|-----0----------------------||
----------------------------|-----------5L-5--3----------||
--0-----------0-------------|--0-----------------0-------||
----------------------------|----------------------------||

Login or Register to remove this ad.