King Dedede Theme (Kirby's Dreamland) Guitar Tab

Submitted: Aug 05, 2009 by natenmn (Last updated: Sep 06, 2009)

5
Average: 5 (12 votes)
Download | Listen
Game: Kirby's Dreamland
Composer(s): Jun Ishikawa
Style: Arrangement, Fingerstyle, Transcription
Series: Kirby

Click here for a video example.

AutoScroll: Slow | Medium | Fast
              King Dedede Theme - Kirby's Dreamland
                         Jun Ishikawa 
                     (Arranged by vicio89)


Tab: Nathan Nordstrom
8/5/2009                                 


                                                                    
Classical Guitar 1 (Capo 4)


   3/4 170bpm                             4/4

     E  Q    E  Q       E  Q    E  Q       E  E  E  E  E  E  E  E   
E||--3--0----3--0----|--3--0----3--0----|--------------------------|
B||------------------|------------------|--------------------------|
G||--1-------1-------|--1-------1-------|--2--2-----0--2--2-----0--|
D||------------------|------------------|--2-----2-----------2-----|
A||------------------|------------------|--0-----0-----0-----0-----|
E||--0--L----0--L----|--0--L----0--L----|--------------------------|


  E  E  E  E  E  E  E  E     E  E  E  E  E  E  E  E   
--------------------------|--------------------------|
--------------------------|--1--------------------1--|
--2--2-----0--2-----------|-----2-----------0--2-----|
--------2--------2-----0--|-----------2--------------|
--0-----0-----0-----0-----|--0-----0-----0-----------|
--------------------------|--------------------------|


  E  E  E  E  E  E  E  E     S  S E  E  E  E  E  E  E   
--------------------0-----|----------------------------|
-----------------3--------|--1p-0----------------1-----|
-----2--------------------|-------2-----------------2--|
--------2-----2-----------|-------------0-----2--------|
--0--------0--------------|----------------------------|
-----------------------0--|--3-------3-----3-----3-----|


  E  E  E  E  E  E  E  E     E  E  E  E  E  E  E  E   
--------------------------|--------------------------|
-----------------------0--|--3--1--------------3--1--|
-----0--2-----0--2--------|--------------------------|
--------------------------|-----------3-----3--------|
--------------------------|--------------------------|
--3--------3--------3-----|--1-----1-----1-----1-----|


  E  E  E  E  E  E  E  E     E  E  E  E  E  E  E  E   
-----------------------0--|--3--0--------------3--0--|
--------------1--3--4-----|--------------------------|
-----2--------------------|-----------0-----0--------|
-----------3--------------|--------------------------|
--------------------------|--------------------------|
--1-----1-----1-----------|--0-----0-----0-----0-----|


  E  E  E  E  E  E  E  E     E  E  E  E  E  E  E  E   
--------------3--0--------|--------------------------|
--------------------------|--1--------------------1--|
-----0-----0--1--------2--|-----2-----------0--2-----|
--------------------------|-----------2--------------|
--------------------------|--0-----0-----0-----------|
--0-----0-----0-----0-----|--------------------------|


  E  E  E  E  E  E  E  E     S  S E  E  E  E  E  E  E   
--------------------0-----|----------------------------|
-----------------3--------|--1p-0----------------1-----|
-----2--------------------|-------2--------0--0-----2--|
--------2-----2-----------|-------------2--------------|
--0--------0--------------|----------------------------|
-----------------------0--|--3-------3-----3-----3-----|


  E  E  E   E   E  E  E  E     E  E  E  E  E  E  E  E   
----------------------------|--------------------------|
----------------------------|--3--1--------------3--1--|
-----0--2-------0--2-----0--|--------------------------|
-----------(0)--------------|-----------3-----0--------|
----------------------------|--------------------------|
--3-----3-------3-----0-----|--1-----1-----1-----1-----|


  E  E  E  E  E  E  E  E     E  E  E  E  E  E  E  E   
-----------------------0--|--3--0--------------3--0--|
--------------1--3--4-----|--------------------------|
-----2--------------------|-----------0-----0--------|
-----------3--------------|--------------------------|
--------------------------|--------------------------|
--1-----1-----1-----------|--0-----0-----0-----0-----|


  E  E  E  E  E  E  E  E     E  E  E  E  E  E  S  S E   
--------------3-----------|----------------------------|
-----------------0--------|-----------0--1--1--1p-0----|
-----0-----0--1-----------|--2--2--2----------------2--|
-----------------------3--|----------------------------|
--------------------------|----------------------------|
--0-----0-----0-----0-----|--1-----1-----3-----3-------|


  E  E  E  Q    E  E  E     E  E  E  E  E  E  E  E     E  Q    Q    E  E  E   
-------------------------|--------------------------|--0--0----0-------------|
-------------------------|-----------0--1--1--1--3--|----------1-------------|
--0--------2-------------|--2--2--2-----------------|----------0-------------|
-----2-----2----2-----0--|--------------------------|---------------2-----0--|
--0-----0----------------|--------------------------|--3---------------------|
-------------------0-----|--1-----1-----3-----3-----|------------------0-----|


  E  E  E  E  E  E  E  E     E  E  E  Q    E  E  E   
--------------------------|-------------------------|
--------------1--1--0-----|-------------------------|
--2--2--2--2-----------2--|--0----------------------|
--------------------------|-----2-----2----2-----0--|
--------------------------|--0-----0----------------|
--1-----1-----3-----3-----|-------------------0-----|


                                                      3/4

  E  E  Q    E  E  S  S E     E  E  E  Q    E  E  E     E  Q    E  Q     
---------------------------|-------------------------|--3--0----3--0----|
-------------1--1--1p-0----|-------------------------|------------------|
--2--2--2---------------2--|--0--2-----2-------------|--1-------1-------|
---------------------------|--------0--2----2-----0--|------------------|
---------------------------|--0--------0-------------|------------------|
--1-----1----3-----3-------|-------------------0-----|--0--L----0--L----|


                   4/4

  E  Q    E  Q       E  E  E  E  E  E  E  E     E  E  E  E  E  E  E  E   
--3--0----3--0----|--------------------------|--------------------------|
------------------|--------------------------|--------------------------|
--1-------1-------|--2--2-----0--2--2-----0--|--2--2-----0--2-----------|
------------------|--2-----2-----------2-----|--------2--------2-----0--|
------------------|--0-----0-----0-----0-----|--0-----0-----0-----0-----|
--0--L----0--L----|--------------------------|--------------------------|


  E  E  E  E  E  E  E  E     E  E  E  E  E  E  E  E   
--------------------------|--------------------0-----|
--1--------------------1--|-----------------3--------|
-----2-----------0--2-----|-----2--------------------|
-----------2--------------|--------2-----2-----------|
--0-----0-----0-----------|--0--------0--------------|
--------------------------|-----------------------0--|


  S  S E  E  E  E  E  E  E     E  E  E  E  E  E  E  E   
----------------------------|--------------------------|
--1p-0----------------1-----|-----------------------0--|
-------2-----------------2--|-----0--2-----0--2--------|
-------------0-----2--------|--------------------------|
----------------------------|--------------------------|
--3-------3-----3-----3-----|--3--------3--------3-----|


  E  E  E  E  E  E  E  E     E  E  E  E  E  E  E  E   
--------------------------|-----------------------0--|
--3--1--------------3--1--|--------------1--3--4-----|
--------------------------|-----2--------------------|
-----------3-----3--------|-----------3--------------|
--------------------------|--------------------------|
--1-----1-----1-----1-----|--1-----1-----1-----------|


  E  E  E  E  E  E  E  E     E  E  E  E  E  E  E  E   
--3--0--------------3--0--|--------------3--0--------|
--------------------------|--------------------------|
-----------0-----0--------|-----0-----0--1--------0--|
--------------------------|--------------------------|
--------------------------|--------------------------|
--0-----0-----0-----0-----|--0-----0-----0-----0-----|


  E  E  E  E  E  E  E  E     E  E  E  E  E  E  E  E   
--------------------------|--------------------0-----|
--1--------------------1--|-----------------3--------|
-----2-----------0--2-----|-----2--------------------|
-----------2--------------|--------2-----2-----------|
--0-----0-----0-----------|--0--------0--------------|
--------------------------|-----------------------0--|


  S  S E  E  E  E  E  E  E     E  E  E   E   E  E  E  E   
----------------------------|----------------------------|
--1p-0----------------1-----|----------------------------|
-------2--------0--0-----2--|-----0--2-------0--2-----0--|
-------------2--------------|-----------(0)--------------|
----------------------------|----------------------------|
--3-------3-----3-----3-----|--3-----3-------3-----0-----|


  E  E  E  E  E  E  E  E     E  E  E  E  E  E  E  E   
--------------------------|-----------------------0--|
--3--1--------------3--1--|--------------1--3--4-----|
--------------------------|-----2--------------------|
-----------3-----0--------|-----------3--------------|
--------------------------|--------------------------|
--1-----1-----1-----1-----|--1-----1-----1-----------|


  E  E  E  E  E  E  E  E     E  E  E  E  E  E  E  E   
--3--0--------------3--0--|--------------3-----------|
--------------------------|-----------------0--------|
-----------0-----0--------|-----0-----0--1-----------|
--------------------------|-----------------------3--|
--------------------------|--------------------------|
--0-----0-----0-----0-----|--0-----0-----0-----0-----|


  E  E  E  E  E  E  S  S E     E  E  E  Q    E  E  E   
----------------------------|-------------------------|
-----------0--1--1--1p-0----|-------------------------|
--2--2--2----------------2--|--0--------2-------------|
----------------------------|-----2-----2----2-----0--|
----------------------------|--0-----0----------------|
--1-----1-----3-----3-------|-------------------0-----|


  E  E  E  E  E  E  E  E     E  E  E  Q    E  E  E   
--------------------------|--0--------0-------------|
-----------0--1--1--1--3--|-----1-------------------|
--2--2--2-----------------|--0--------0-------------|
--------------------------|----------------2-----0--|
--------------------------|--0-----0----------------|
--1-----1-----3-----3-----|-------------------0-----|


  E  E  E  E  E  E  S  S E     E  E  E  Q    E  E  E   
----------------------------|-------------------------|
-----------0--1--1--1p-0----|-------------------------|
--2--2--2----------------2--|--0----------------------|
----------------------------|-----2-----2----2-----0--|
----------------------------|--0-----0----------------|
--1-----1-----3-----3-------|-------------------0-----|


                           Slow Tempo---------------------------------

  E  E  E  E  E  E  E  E     E   Q    H        E     W                  
--------------------------|-----------------------|-------------------||
-----------0--1--1--1-----|-----------------------|-------------------||
--2--2--2--------------2--|-----------2--------L--|--L----------------||
--------------------------|--0h--2----2--------L--|--L----------------||
--------------------------|--0--------0--------L--|--L----------------||
--1-----1-----3-----3-----|-----------------------|-------------------||




Duration Legend
---------------
W - whole
H - half
Q - quarter
E - 8th
S - 16th
T - 32nd
X - 64th
. - note dotted
|-n-|  - n-tuplets


Tablature Legend
----------------
L - tied note
x - dead note
g - grace note
(n) - ghost note
> - accentuded note
NH - natural harmonic
AH - artificial harmonic
TH - tapped harmonic
SH - semi harmonic
PH - pitch harmonic
h - hammer on
p - pull off
b - bend
br - bendRelease
pb - preBend
pbr - preBendRelease
brb - bendReleaseBend
\n/ - tremolo bar dip
\n - tremolo bar dive
-/n - tremolo bar Release up
/n\ - tremolo bar inverted dip
/n - tremolo bar return
-\n - tremolo bar Release down
S - shift slide
s - legato slide
/ -  slide into from below or out of upwards
\ -  slide into from above or out of downwards
~ - vibrato
W - wide vibrato
tr - trill
TP - tremolo picking
T - tapping
S - slap
P - pop
< - fade in
^ - brush up
v - brush down
Login or Register to remove this ad.

6 comments on King Dedede Theme

mistake

I caught a mistake in the first two measures should be this

     E  Q    E  Q       E  Q    E  Q       
E||--3--0----3--0----|--3--0----3--0----|
B||------------------|------------------|
G||--1-------1-------|--1-------1-------|
D||------------------|------------------|
A||------------------|------------------|
E||--0--L----0--L----|--0--L----0--L----|



You are absolutely right,

You are absolutely right, conqueran! Thanks for catching that... now I know why it sounded a bit off :). Must have been a lysdexic moment :P.

I will update this in a little bit with corrections to the midi, pdf, etc. as well.

EDIT: Ok, I have fixed everything... thanks again, conqueran, for pointing out the error :)

nice gem

5

wouldnt have chosen this to play until someone recommended it. very nice.

Video example...

5

It's a terrible shame that video was removed...

Yeah, I actually noticed this

Yeah, I actually noticed this yesterday, as well. I went to view one of his other videos and it was gone D:

This song is fucking hype.

5

This song is fucking hype.