Ads

Vegetable Valley (Kirby's Adventure) Guitar Tab

Submitted: Sep 13, 2011 by auriplane

0
Download | Listen
Game: Kirby's Adventure
Composer(s): Hirokazu Ando
Style: Alternate picking, Transcription
Series: Kirby

AutoScroll: Slow | Medium | Fast
           Kirby's Adventure - Vegetable Valley GUITAR TAB
               Composed by Jun Ishikawa & Hirokazu Ando

                Tabbed by Auriplane ([email protected])



This tab is for the main melody, so it doesn't have the intro part or
other stuff.  Let me know if you want that stuff.

        Part A

e |----------------|5---------------|----------------|----------------|
B |----------------|--------8-------|7-------5-----7-|----------------|
G |4-----------5-7-|----------------|----------------|7-------4-------|
D |----------------|----------------|----------------|----------------|
A |----------------|----------------|----------------|----------------|
E |----------------|----------------|----------------|----------------|


e |----------------|10------8-----7-|----------------|----------------|
B |------------5-8-|----------------|10--------------|----------------|
G |5---------------|----------------|----------------|----------------|
D |----------------|----------------|----------------|----------------|
A |----------------|----------------|----------------|----------------|
E |----------------|----------------|----------------|----------------|


e |----------------|5---------------|----------------|----------------|
B |----------------|--------8-------|7-------5-----7-|--------8-------|
G |7-----------4-7-|----------------|----------------|7---------------|
D |----------------|----------------|----------------|----------------|
A |----------------|----------------|----------------|----------------|
E |----------------|----------------|----------------|----------------|


e |----------------|--------12----10|10--------------|----------------|
B |10----------1112|13--------------|----------------|----------------|
G |----------------|----------------|----------------|----------------|
D |----------------|----------------|----------------|----------------|
A |----------------|----------------|----------------|----------------|
E |----------------|----------------|----------------|----------------|

        Part B

e |----------------|----------------|----------------|----------------|
B |------------9---|7---------------|----------------|----------------|
G |----------------|--------6-----8-|9-------------9-|----------------|
D |6-----8-9-------|----------------|--------9-------|8---------------|
A |----------------|----------------|----------------|----------------|
E |----------------|----------------|----------------|----------------|


e |------------7---|----------------|----------------|----------------|
B |----------------|10------8-----7-|----------------|----------------|
G |------6-7-------|----------------|9---------------|----------------|
D |9---------------|----------------|----------------|----------------|
A |----------------|----------------|----------------|----------------|
E |----------------|----------------|----------------|----------------|


e |----------------|----------------|----------------|----------------|
B |------------9---|7---------------|----------------|----------------|
G |----------------|------------6-8-|9-------------9-|------------6---|
D |6-----7-9-------|----------------|--------9-------|8-------9-------|
A |----------------|----------------|----------------|----------------|
E |----------------|----------------|----------------|----------------|


e |------------10--|9---------------|----------------|----------------|
B |--------7-------|--------9-------|10--------------|----------------|
G |7-----9---------|----------------|----------------|----------------|
D |----------------|----------------|----------------|----------------|
A |----------------|----------------|----------------|----------------|
E |----------------|----------------|----------------|----------------|


Login or Register to remove this ad.