Ads

Butter Building (Kirby's Adventure) Guitar Tab

Submitted: Jan 21, 2012 by JordanVS

5
Average: 5 (5 votes)
Download | Listen
Game: Kirby's Adventure
Composer(s): Hirokazu Ando
Style: Arrangement, Fingerstyle, Percussion
Series: Kirby

AutoScroll: Slow | Medium | Fast
Butter Building                                 
Kirby's  Adventure
Nes
Jun Ishikawa & Hirokazu Ando


Solo Guitar:


     E  E  E  E  E  E  E  E     E  E  E  E  E  E  Q     
E||--9-----9-----------9-----|--7-----7-----7----------|
B||--------------7-----------|-------------------------|
G||-----6-----6-----6-----6--|-----4-----4-------------|
D||--------------------------|--------4----------------|
A||--9-----------9-----------|-------------------------|
E||--------9-----------9-----|--7-----------7----------|


  S S S S S S S S S S S S S S S S    S S S S S S S S S S S S S S S S  
----------------------------------|--0---0---0---0---------------2---|
--4---4---4---4---2---2---2---2---|------------------4---4---4-----0-|
----1---1---1---1---1---1---1---1-|----2---2---2---2---2---2---2-----|
----------------------------------|----------------------------------|
----------------------------------|----------------------------------|
--0---------------0---------------|--2---------------2---------------|


  S S S S S S S S S S S S S S S S    S S S S S S S S S S E  S S E   
----------------------------------|--0---0---0---0------------7----|
--4---4---4---4---2---2---2---2---|------------------4---4--7---7--|
----1---1---1---1---1---1---1---1-|----2---2---2---2---2-----------|
----------------------------------|--------------------------------|
----------------------------------|--------------------------------|
--0---------------0---------------|--2---------------2-------------|


  S E  S E  E  E  E  E  E     H        Q    Q       S E  S E  E  E  E  E  E   
---------------------------|---------------------|---------------------------|
--4-4--2-4--2--0-----------|---------------------|------------------------2--|
------------------1--------|--1------------------|--2-2--1-2--1-----1--2-----|
--2------------2-----1--2--|--2--------2---------|--4------------4-----------|
---------2-----------2-----|----------------2----|---------4-----------4-----|
---------------------------|---------------------|---------------2-----------|


  Q    E  E  E  E  E  E     S E  S E  E  E  E  E  E     H        Q    Q     
-------------------------|---------------------------|---------------------|
-------------------------|--4-4--2-4--2--0-----------|---------------------|
--4-------4-----4-----4--|------------------1--------|--1------------------|
--4----------------1-----|--2------------2-----1--2--|--2--------2---------|
-------2-----4-----------|---------2-----------2-----|----------------2----|
-------------------------|---------------------------|---------------------|


  S E  S E  E  E  E  E  E     Q    E.  S E  E  E  S S    Q    Q    E  E  E  E   
---------------------------|-------0---1-2------------|------------------0--2--|
------------------------2--|--4-------------------0-0-|--2---------L--4--------|
--2-2--1-2--1-----1--2-----|--------------------------|--2------------2--------|
--4------------4-----------|--4----4------------------|------------------2-----|
---------4-----------4-----|-------------2------------|------------------------|
---------------2-----------|--------------------------|------------------------|


  Q    Q    Q    E  E     Q    Q    E  E  E  E     Q    Q    E  E  E  E   
--4----0------------0--|--2---------L-----------|------------------------|
------------2----4-----|---------------4--0-----|--0---------------------|
--2---------2----------|--1------------1-----1--|--1---------1-----1--0--|
-------2---------2-----|-------1-------------1--|-------1-------1--------|
--------------------0--|------------------------|------------------------|
-----------------------|------------------------|------------------------|


  Q    Q    E  E  E  E     Q    Q    Q    Q       Q    E  S S E  E  Q     
------------------------|--0-------------------|-------------------------|
---------------0--2--4--|-------2--------------|--------------------2----|
--2---------L-----------|------------2---------|--1---------1-2----------|
--4---------4--------6--|--4---------4----4----|--2-------4---2--4-------|
-------4----------4-----|-------4---------4----|-------2------------2----|
------------------------|----------------------|-------------------------|


  Q.     E  S S  S  S S  S  S S     Q    Q    E  E  E  E   
------------------------------2h-|--4---------L--2--0-----|
--0-------------------2h-4h-5----|---------------------4--|
--------------1h-2h-4------------|------------------------|
--2------------------------------|--2---------2--------4--|
---------2------------0----------|-------2----------2-----|
--------------0------------------|------------------------|


  Q    Q    Q    E  E     Q    Q    E  E  E  E     Q    Q    E  E  E  E   
------------0----4-----|--2---------L-----------|------------------------|
--2----4---------------|---------------4--0-----|--0---------------------|
--2---------2----------|--1---------1--------1--|--1---------1-----1--0--|
-------2---------2-----|-------1----------1-----|-------1-------1--------|
--------------------0--|------------------------|------------------------|
-----------------------|------------------------|------------------------|


  Q    Q    E  E  E  E     Q    Q    Q    Q       Q    Q    E  E  E  E   
------------------------|--0--------------2----|--0---------L--------0--|
---------------0--2--4--|------------2---------|---------------2--4-----|
--2---------L-----------|-------2--------------|------------------------|
--4---------4--------6--|--4---------4---------|-------4----------4-----|
-------4----------4-----|-------4---------4----|--2---------2-----------|
------------------------|----------------------|------------------------|


  Q    Q    S S S S S E.           
--7---------L-------------|------||
--------------------------|------||
--------------------------|------||
--4-----------------------|------||
-------4------x---x-x-----|------||
--------------------------|------||




Duration Legend
---------------
W - whole
H - half
Q - quarter
E - 8th
S - 16th
. - note dotted


Tablature Legend
----------------
L - tied note
x - dead note
h - hammer on

Login or Register to remove this ad.