Ads

Shiver Star (Kirby 64: The Crystal Shards) Guitar Tab

Submitted: Oct 27, 2011 by Lemoncobbler

5
Average: 5 (2 votes)
Download | Listen
Game: Kirby 64: The Crystal Shards
Composer(s): Jun Ishikawa, Hirokazu Ando
Style: Arrangement, Fingerstyle

AutoScroll: Slow | Medium | Fast
Shiverstar
Kirby 64
tabbed by lemoncobbler

Track 1 (Capo 3)
     Q    Q    Q       Q    Q    Q       Q    Q    Q       Q    Q    Q     
E||-----------------|-----------------|-----------------|-----------------|
B||-----------------|-----------------|-----------------|-----------------|
G||------------0----|-----------------|------------0----|-----------------|
D||--2----L---------|--4----L----0----|--2----L---------|--4---------0----|
A||-------2---------|-------2---------|-------2---------|-------2---------|
E||--0----0----0----|--0----0----0----|--0----0----0----|--0----0----0----|


  Q    Q    Q       Q    Q    Q       Q    Q    Q       Q    Q    Q     
-----------------|-----------------|-----------------|-----------------|
-----------------|-----------------|-----------------|-----------------|
------------0----|-----------------|-----------------|-----------------|
--2----L---------|--4----L----0----|--2----L---------|-----------------|
-----------------|-----------------|-----------------|-----------------|
--0----0----0----|--0----0----0----|--0----0----0----|--0----0----0----|


  Q    Q    Q       Q    Q    Q       Q    Q    E   E     Q    Q    Q     
-----------------|-----------------|-------------------|-----------------|
-----------------|-----------------|--0----------------|-----------------|
------------0----|------------2----|------------2p--0--|-----------------|
--2----L---------|--4----L----0----|--2----L-----------|--4--------------|
-------2---------|-----------------|-------------------|-----------------|
--0----0----0----|--0----0----0----|--0----0----0---L--|--0----0----0----|


  Q    Q    Q       Q    Q    Q       Q    Q    Q       Q    Q    E  E   
-----------------|-----------------|-----------------|------------------|
--0--------------|-----------------|-----------------|------------0-----|
------------0----|-----------------|-----------------|-------2----------|
--2----L---------|--4----L----0----|--2----L---------|------------------|
-------2---------|-------2---------|-----------------|-------2----------|
--0----0----0----|--0----0----0----|--0----0----0----|--0----0----0--L--|


  Q    Q    Q       Q    Q    Q       Q    Q    Q       Q    Q    Q     
-----------------|-----------------|-----------------|-----------------|
--1---------L----|--1---------L----|--1---------L----|-------0---------|
------------2----|------------2----|-----------------|------------2----|
-------3---------|-------3---------|-----------------|-----------------|
-----------------|-----------------|-----------------|-----------------|
--1----1----1----|--1----1----1----|--1----1----1----|--1----1----1----|


  Q    Q    Q       Q    Q    Q       Q    Q    Q       Q    Q    Q     
-----------------|-----------------|-----------------|-----------------|
-----------------|-----------------|-----------------|-----------------|
--0--------------|--0--------------|--0--------------|-------2----0----|
------------0----|------------0----|-----------------|-----------------|
-------2---------|-------2---------|-----------------|-----------------|
--0----0----0----|--0----0----0----|--0----0----0----|--0----0----0----|


  Q    Q    Q       Q    Q    Q       Q    Q    Q       Q    Q    Q     
-----------------|-----------------|-----------------|-----------------|
-----------------|-----------------|-----------------|-----------------|
-----------------|-----------------|-----------------|-----------------|
--4--------------|--4--------------|--4--------------|--4--------------|
-------2----3----|-------2----3----|-------2----3----|-------2----3----|
--0----0----0----|--0----0----0----|--0----0----0----|--0----0----0----|


  Q    Q    Q       Q    Q    Q       Q    Q    Q       Q    Q    Q       
-----------------|-----------------|-----------------|------------------||
-----------------|-----------------|-----------------|------------------||
-----------------|-----------------|-----------------|-----------------*||
--4--------------|--4--------------|-----------------|--4--------------*||
-------2----3----|-------2----3----|-------2----3----|-------2----3-----||
-----------------|-----------------|--0--------------|------------------||




Duration Legend
---------------
W - whole
H - half
Q - quarter
E - 8th
S - 16th
T - 32nd
X - 64th
. - note dotted
|-n-|  - n-tuplets


Tablature Legend
----------------
L - tied note
x - dead note
g - grace note
(n) - ghost note
> - accentuded note
NH - natural harmonic
AH - artificial harmonic
TH - tapped harmonic
SH - semi harmonic
PH - pitch harmonic
h - hammer on
p - pull off
b - bend
br - bendRelease
pb - preBend
pbr - preBendRelease
brb - bendReleaseBend
\n/ - tremolo bar dip
\n - tremolo bar dive
-/n - tremolo bar Release up
/n\ - tremolo bar inverted dip
/n - tremolo bar return
-\n - tremolo bar Release down
S - shift slide
s - legato slide
/ -  slide into from below or out of upwards
\ -  slide into from above or out of downwards
~ - vibrato
W - wide vibrato
tr - trill
TP - tremolo picking
T - tapping
S - slap
P - pop
< - fade in
^ - brush up
v - brush down
Login or Register to remove this ad.

2 comments on Shiver Star

nice !

5

I like yr "rythm" arrangment, we need more tab like that

thanks man!

thanks man!