Ads

Mountain Stream (Kirby 64: The Crystal Shards) Guitar Tab

Submitted: May 24, 2011 by BluePhoenix

5
Average: 5 (1 vote)
Download | Listen
Game: Kirby 64: The Crystal Shards
Composer(s): Jun Ishikawa, Hirokazu Ando
Style: Arrangement, Fingerstyle

AutoScroll: Slow | Medium | Fast
Title: Mountain Stream
Artist: Jun Ishikawa




E|-3---------------0-------3-------|-8-------7-------3---------------|-3---------------1---0-----------|
B|---------------------------------|-5---5---5---------------1-------|-----------------------------3---|
G|-----0---0---0---0---0---0---0---|-----0---0---0---0---0---0---0---|-----2---2---2---2---2---2---2---|
D|-----2---2---2---2---2---2---2---|-0---------------0-------2---2---|-----3---3---3---3---3---3---3---|
A|-3-------------------------------|---------------------------------|-5-------------------------------|
E|---------------------------------|---------------------------------|---------------------------------|


E|---------------------------------|-3---------------0-------3-------|-8-------7-------3---------------|
B|---------------------------------|---------------------------------|-5---5---5---------------1-------|
G|-2---2---2---2---4---4---4---4---|-----0---0---0---0---0---0---0---|-----0---0---0---0---0---0---0---|
D|-3---3---3---3---5---5---5---5---|-----2---2---2---2---2---2---2---|-0---------------0-------2---2---|
A|---------------------------------|-3-------------------------------|---------------------------------|
E|---------------------------------|---------------------------------|---------------------------------|


E|-3-------------------0-----------|-------------------------------------------|-------------------------------------------------|
B|-----------------3-----------1---|-------------------------------------------|-------------------------------------------------|
G|-----2---2---2---2---2---2---2---|-0-----0-----0-----0-----0-----------------|-0-----0-----0-----0-----------0-----0-----0-----|
D|-----3---3---3---3---3---3-------|-2-----2-----2-----2-----2-----------------|----2-----2-----2-----2--2--2-----2-----2-----2--|
A|-5-------------------------------|-------------------------------------------|-3-----------3-----------3-----------3-----------|
E|---------------------------------|-------------------------------------------|-------------------------------------------------|


E|-------------------------------------------------|-------------------------------------------------|
B|-1-----------0-----------------------------------|-------------------------------------------------|
G|-------0-----------0-----0-----0-----------2-----|-0-----2-----------2-----------2-----------4-----|
D|----2-----2-----2-----2-----2-----2-----3-----3--|----3-----3--3--3-----3--2--3-----3--0--5-----5--|
A|-3-----------3-----------3-----------3-----------|-5-----------5-----------5-----------5-----------|
E|-------------------------------------------------|-------------------------------------------------|


E|--------------------------------------------------|-------------------------------------------------|
B|--------------------------------------------------|----------------------------------1-----------0--|
G|-------4-----------4---------------0-----0-----0--|----0-----------0-----0-----0-----------0--------|
D|----5-----5--5--5-----5--5--5---------2-----2-----|-2-----2--2--2-----2-----2-----2-----2-----2-----|
A|-5-----------5-----------5-----0-2-3-----------3--|----------3-----------3-----------3-----------3--|
E|--------------------------------------------------|-------------------------------------------------|


E|-------------------------------------------------|------------------------------------------|
B|-0-----------------------------------------------|------------------------------------------|
G|----0-----0-----0-----------0-----0-----2--------|----2-----------2-------------------------|
D|-2-----2-----2-----2-----2-----2-----3-----3-----|-3-----3--2--3-----3----------------------|
A|----------3-----------3-----------5-----------5--|----------5-----------3-------------------|
E|-------------------------------------------------|------------------------------------------|


E|-------3------------3---6-------|-4-----3-----1---3-------------------------|-------------------3-----------------3-----6-----|
B|----------------4---------------|---------------------------3---------------|-------3-----------------------------------------|
G|-0----------0-------0---3-------|-------------------------------------4-----|-4-----------------------------5-----------------|
D|--------------------------------|-6-----5-----3---5-------------------------|-------------------5-----5-----------5-----------|
A|-------3----3---6-------3-------|----------3--3---5---------3---------5-----|-5-----5-----------------------3-----------3-----|
E|-3------------------------------|-------------------------------------7-----|-7-----------------------------------------------|


E|-8--8----------------------------------|-----------------3-----------3-----------0-----|
B|-------8-----6---8---------5---6---8---|-----------------------------------------------|
G|-5--5----------------9-----------------|-----------------0-----0-----0-----0-----------|
D|-------5-----5-------------------------|-5---5--5-----------2-----2-----2-----2--2--2--|
A|---------------------7--7--7-----------|-5---------------3-----------3-----------3-----|
E|----------8------8---------------------|-----------------------------------------------|


E|-------3-----------8-----------7-----------------|-------------------------------------------------|
B|-------------------5-----------5-----------8-----|-------------------8-----------------------5-----|
G|-0-----0-----------------------------------7-----|-------5-----------------------7-----------------|
D|----2--------5-----------5-----------5-----------|-5-----------7-----------7-----------7--------3--|
A|-------3--7-----7-----7-----7-----7-----7-----7--|----7-----8-----8-----8-----8--8--8-----8--5-----|
E|-------------------------------------------8-----|-------8-----------10----------------------------|


E|-------------------------------------------------|-----3-----------3-----------0-----------3--------|
B|-------3-----------------------------------------|--------------------------------------------------|
G|-2-----------4-----------4-----------4-----------|-----0-----0-----0-----0-----------0-----0-----0--|
D|----3-----5-----5-----5-----5--5--5-----5--5--5--|--------2-----2-----2-----2--2--2-----2-----2-----|
A|-------5-----------5-----------5-----------5-----|-0-2-3-----------3-----------3-----------3--------|
E|-------------------------------------------------|--------------------------------------------------|


E|----8-----------7--------------------------------|---------------------------------------------|
B|----5-----------5-----------8--------------------|----8-----------------------5----------------|
G|----------------------------------------5--------|----7-----------7-----2-----------2-----5----|
D|-2--------5-----------5-----------5-----------5--|----------5--------3-----3--2--3-----3-------|
A|-------7-----7-----7-----7-----7-----7-----7-----|-7-----7-----7--5-----------5-----------3----|
E|----------------------------8-----------8--------|---------------------------------------------|


E|----------------------------3---------0--|-L------3-----3-----8--8--------7--------------|
B|----------------------------0--0---------|-0------5--------5--5-----5-----8--8--------8--|
G|-----------------------------------0--0--|-L---0--0-----------5--------5--7--------7--7--|
D|-------------------------2--2------------|--------2-----------7-----7-----9-----9-----7--|
A|-L--------------------3-----3---------3--|-L------3--------------------------------------|
E|-----------------------------------------|-----------------------------------------------|


E|-------0------------3---------1-----0------------|-----------------------------------3-------0----|
B|-L--L---------------------------------------3-L--|---L---L---L----L--L---------------0------------|
G|-L--L-----5--L------0------0----------------0-L--|---L---L---L----L--L-----------------------0----|
D|-L--L-----7--L------2---2-------------------2-L--|---L---L---L----L--L---------------2------------|
A|----------7--L--7---3---------3-------------3-L--|---L---L---L----L--L---------------3-------3----|
E|-------------------------------------------------|-------3--------3-----3---3--3------------------|


E|-L-----3---------8-------7----------|-------------------------------|-----------------------|
B|-------5---------5-------8----8--L--|-0--L----------6----8---5---6--|-----------------------|
G|-L-----0---------5-------7----7--L--|-0--L--5----L--5----7---5---5--|-5---------4--------5--|
D|-----------------7---7---9----7--L--|-7--L--7----L--7----5---5------|-5------------------5--|
A|-L-----3-----3----------------------|-------7----L--7---------------|-5------------------3--|
E|------------------------------------|-------------------------------|-3---------------------|


E|-------------------------|
B|------------0------------|
G|-L--------------5--------|
D|-L--------------5--------|
A|-L--------------3--------|
E|-------------------------|



Login or Register to remove this ad.