Ads

Grab Grab Race (Kirby 64: The Crystal Shards) Guitar Tab

Submitted: Apr 16, 2012 by Lemoncobbler

5
Average: 5 (3 votes)
Download | Listen
Game: Kirby 64: The Crystal Shards
Composer(s): Jun Ishikawa, Hirokazu Ando
Style: Arrangement, Fingerstyle

AutoScroll: Slow | Medium | Fast
Kirby's Grab Grab Race
Kirby 64 
Composed by Jun Ishikawa and Hirokazu Ando
Arranged by lemoncobbler

(Capo 3)

Don't forget about the tuning! 

     H.           E  E       E  E  E  E  E  E  E  E     E  E  E  E  Q    E  E   
E||---------------0--2--||---3--------------L-----2--|--0-----------L----------|
C||---------------------||---------------------------|-------------------0--2--|
G||---------------------||*--------------------------|-------------------------|
D||---------------------||*--------------------------|-------------------------|
A||---------------------||---0--0--------0--0--------|--0--3--0-----0----------|
E||---------------1--3--||------------3-----------3--|-----------3-------0--3--|


  E  E  E  E  E  E  E  E     E  E  E  E  Q    E  E     E  E  E  E  E  E  E  E   
--0--L--------------------|-------------------------|--------------------------|
--------0--L--------------|--------0--L-------------|--0-----------------0--2--|
--------------2--L--0--L--|--2--L--------2----2--4--|--------------------------|
--------------------------|-------------------------|--3--3--------3--3--------|
--0--0--------0--0--------|--0--3--0-----0----0-----|-----------3-----------3--|
-----------3-----------3--|-----------3----------3--|--------------------------|


  E  E  E  E  E  E  E  E     E  E  E  E  E  E  E  E     E  E  E  E  Q    E  E   
--------------------------|--------------------------|-------------------0--2--|
--3-----0-----------------|--------0--L--------------|-----0-------------------|
-----2--------2--L--0--L--|--2--L--------2--L-----0--|--2-----2--0--2----------|
--3-----3-----3--3--L-----|--------------------------|-------------------------|
-----------3--------------|--0--0--------0--0--------|--0--3--0-----0----------|
-----------------------3--|-----------3-----------3--|-----------3-------0--3--|


  E  E  E  E  E  E  E  E     E  E  E  E  Q    E  E     E  E  E  E  E  E  E  E   
--3--L--------L-----3--5--|--0----------------------|--0-----------------------|
--------------------------|-------------------0--2--|--------0-----------------|
--------------------------|-------------------------|--------------2-----0-----|
--------------------------|-------------------------|--------------------------|
--0--0--------0--0--------|--0--3--0-----0----------|--0--0--------0--0--------|
-----------3-----------3--|-----------3-------0--3--|-----------3-----------3--|


  E  E  E  E  Q    E  E     E  E  E  E  E  E  E  E     E  E  E  E  E  E  E  E   
-------------------------|--------------------------|--------------------------|
--------0--L-------------|--0-----------------0--2--|--3-----0-----------------|
--2--L--------2----2--4--|--------------------------|-----2--------2--L--0--L--|
-------------------------|--3--3--------3--3--------|--3-----3-----3--3--L-----|
--0--3--0-----0----0-----|-----------3-----------3--|-----------3--------------|
-----------3----------3--|--------------------------|-----------------------3--|


  E  E  E  E  E  E  E  E     E  E  E  E  Q    E  E     E  E  E  E  E  E  E  E   
--------------------------|-------------------------|--------------------------|
--------0--L--------------|-----0----------------0--|--3--L-----3--L--3--2--0--|
--2--L--------2--L-----0--|--2-----2--0--2----2-----|--------------------------|
--------------------------|-------------------------|--3--3--------3--3--------|
--0--0--------0--0--------|--0--3--0-----0----------|-----------3-----------3--|
-----------3-----------3--|-----------3-------0--3--|--------------------------|


  E  E  E  E  E  E  E  E     E  E  E  E  E  E  E  E   
--------------------------|--------------------------|
--3--L-----3-----3--2--0--|-----0--------------------|
--0--0--------0--0--------|--2-----2--0--2--------2--|
-----------0-----------0--|--------------------------|
--------------------------|--0--0--------0--0--------|
--------------------------|-----------3-----------3--|


  E  E  E  E  E  E  E  E     E  E  E  E  E  E  E  E     E  E  E  Q    E  E  E   
--------------------------|--------------------------|-------------------------|
-----0--L--------------0--|--3--L-----3--L--3--2--0--|-----3-----3----3--2--0--|
--L-----2--0--2-----2-----|--------------------------|-----0-----0-------0-----|
-----------------2--------|--3--3--------3--3--------|--------0-------0-----0--|
--0--3--0-----0--0--------|-----------3-----------3--|-------------------------|
-----------3--------0--3--|--------------------------|-------------------------|


  E  Q    Q    E  E  E     E  E  E  Q    E  Q       E  E  E  E  E  E  E  E   
---------------0--1--0--|--3--3--3--3----0--3----|--5--L-----5--L--7--8--7--|
-----0----2-------------|------------------------|--------------------------|
--4-------2-------------|------------------------|--------------------------|
--2--2------------------|----------------2--2----|--0--0--------0--0-----0--|
----------2-------2-----|------------------------|-----------0--------------|
---------------0-----0--|--0--0--0--0------------|--------------------------|


  E  E  E  E  E  E  E  E     E  E  E  E  E  E  E  E   
--5--3-----------3--5-----|--0-----0-----0-----0-----|
-----------4-----------2--|-----5-----5-----5-----5--|
--------------------------|--------------------------|
--2--2--------2--2-----0--|--------------------------|
-----------2--------------|--0--0-----0--------------|
--------------------------|--------------4--4-----4--|


  E  E  E  E  E  E  E  E     E  E  E  E  E  E  E  E   
--0-----0-----0--L--0--3--|--5--L-----5--L--7--8--7--|
-----5-----5--------------|--------------------------|
--------------------------|--------------------------|
--------------------------|--0--0--------0--0-----0--|
--------------------------|-----------0--------------|
--3--3-----3--2--2--------|--------------------------|


   E   Q    E  E  E  E  E     E  E  E  E  E  E   E  E   
--11--10----8--L--5--3--5--|--8-----------------11--L--|
---------------------------|-----9--7--9---------------|
------------------------0--|---------------------------|
---------------------------|---------------------------|
---------------------------|--0--------0--0---------0--|
---0--------7--0--0--------|---------------------------|


   E  E  E  E  E  Q.        E  E  E  E  E  E  E  E     E  E  E  E  E  E  E  E   
--10--8--L---------------|--0--L-----0--L--0--------|--2--------2-----2--0-----|
---------7--9--L---------|--2--------2--------2--0--|-----------------------2--|
-------------------------|--------------------------|--------------------------|
-------------------------|-----0--------0--0-----0--|--2-----------------------|
------0-----0--0---------|--------------------------|-----------2-----------2--|
---8---------------------|--------------------------|-----0--------0--0--------|


                             v                         
  E  E  E  E  E  E  E  E     E  E  E  Q    E  E  E     
--3--------3-----3--1--0--|-----0--1--0-------0--2---||
--------------------------|--2-----------------------||
--------------------------|--2----------------------*||
-----------3--------------|--0----------------------*||
--------------------------|--------------------------||
--1--1--------1--1--------|-------------------1--3---||




Duration Legend
---------------
W - whole
H - half
Q - quarter
E - 8th
S - 16th
T - 32nd
X - 64th
. - note dotted
|-n-|  - n-tuplets


Tablature Legend
----------------
L - tied note
x - dead note
g - grace note
(n) - ghost note
> - accentuded note
NH - natural harmonic
AH - artificial harmonic
TH - tapped harmonic
SH - semi harmonic
PH - pitch harmonic
h - hammer on
p - pull off
b - bend
br - bendRelease
pb - preBend
pbr - preBendRelease
brb - bendReleaseBend
\n/ - tremolo bar dip
\n - tremolo bar dive
-/n - tremolo bar Release up
/n\ - tremolo bar inverted dip
/n - tremolo bar return
-\n - tremolo bar Release down
S - shift slide
s - legato slide
/ -  slide into from below or out of upwards
\ -  slide into from above or out of downwards
~ - vibrato
W - wide vibrato
tr - trill
TP - tremolo picking
T - tapping
S - slap
P - pop
< - fade in
^ - brush up
v - brush down
Login or Register to remove this ad.

2 comments on Grab Grab Race

Good tab, but isn't this song

Good tab, but isn't this song called Bumper-Crop Bump?

I think thats what I

I think thats what I originally requested it be called, but someone told me it was incorrect!