Treasured Memories (Kingdom Hearts) Guitar Tab

Submitted: Mar 04, 2015 by massinelli

5
Average: 5 (4 votes)
Download | Listen
Game: Kingdom Hearts
Composer(s): Yoko Shimomura
Style: Arrangement, Fingerstyle
Series: Kingdom Hearts

AutoScroll: Slow | Medium | Fast
Treasured Memories 
Kingdom Hearts Original Soundtrack	                            
Arranged by Matheus Massinelli
Composed by Yoko Shimomura
Video demonstration:
http://youtu.be/LNI2xa_RXh4
If you like, don't forget to subscribe! =)


Standard Tuning
Capo 1st Fret

Andante Moderato
     Q    Q    Q    H           Q    Q    Q    Q    Q     
E||--0--------------5--------|--0--------------3---------|
B||--------------------------|-------3--------------0----|
G||------------2-------------|-----------------2----0----|
D||------------3-------------|------------0--------------|
A||-------3------------------|---------------------------|
E||--1-----------------------|-------3-------------------|


  Q    Q    Q    H           Q     Q    Q    Q    Q     
--0--------------5--------|--7----10----8----7----3----|
--------------------------|------------------7---------|
------------2-------------|-------------7--------------|
------------3-------------|-----------------------2----|
-------3------------------|-------10-------------------|
--1-----------------------|----------------------------|


  Q    Q    Q     H            Q    Q    Q    Q    Q     
--8----7----5----12--------|--10----5----7----8----3----|
---------------------------|-----------------------0----|
-------5-------------------|----------------------------|
---------------------------|--------3-------------------|
--8--------------12--------|----------------------------|
---------------------------|----------------------------|


  Q     Q    Q    Q    Q       Q    Q    Q    Q     Q     
--3----10----5----7----8----|--7---------7----8----10----|
----------------------------|----------------------10----|
----------------------------|------------7---------------|
-----------------------7----|-------5--------------------|
-------10----5--------------|----------------------------|
----------------------------|----------------------------|


  H        H        Q       Q    Q    Q    H         
-------------------------|--0--------------5--------|
--0----------------------|--------------------------|
-------------------------|------------2-------------|
-------------------------|------------3-------------|
-------------------------|-------3------------------|
-------------------------|--1-----------------------|


  Q    Q    Q    Q    Q       Q    Q    Q    H         
--0--------------3---------|--0--------------5--------|
-------3--------------0----|--------------------------|
-----------------2----0----|------------2-------------|
------------0--------------|------------3-------------|
---------------------------|-------3------------------|
-------3-------------------|--1-----------------------|


  Q     Q    Q    Q    Q       Q    Q    Q     H         
--7----10----8----7----3----|--8----7----5----12--------|
------------------7---------|---------------------------|
-------------7--------------|-------5-------------------|
-----------------------2----|---------------------------|
-------10-------------------|--8--------------12--------|
----------------------------|---------------------------|


   Q    Q    Q    Q    Q       Q     Q    Q    Q    Q     
--10----5----7----8----3----|--3----10----5----7----8----|
-----------------------0----|----------------------------|
----------------------------|----------------------------|
--------3-------------------|-----------------------7----|
----------------------------|-------10----5--------------|
----------------------------|----------------------------|


  Q    Q    Q    Q     Q       H        H        Q     
--7---------7----8----10----|-------------------------|
----------------------10----|--0----------------------|
------------7---------------|-------------------------|
-------5--------------------|-------------------------|
----------------------------|-------------------------|
----------------------------|-------------------------|


  Q    Q    Q    H           Q    Q    Q    Q    Q     
--0--------------5--------|--0--------------3---------|
--------------------------|-------3--------------0----|
------------2-------------|-----------------2----0----|
------------3-------------|------------0--------------|
-------3------------------|---------------------------|
--1-----------------------|-------3-------------------|


                                            ^           ^                       
  Q    Q    Q    H           Q    Q    Q    H           W                Q      
--0--------------5--------|--0--------------3--------|------------------------||
--------------------------|-------3------------------|--0---------------------||
------------2-------------|-----------------2--------|--0---------------------||
------------3-------------|------------0-------------|------------------------||
-------3------------------|--------------------------|------------------------||
--1-----------------------|-------3------------------|------------------------||




Duration Legend
---------------
W - whole
H - half
Q - quarter
E - 8th
S - 16th
T - 32nd
X - 64th
. - note dotted
|-n-|  - n-tuplets


Tablature Legend
----------------
L - tied note
x - dead note
g - grace note
(n) - ghost note
> - accentuded note
NH - natural harmonic
AH - artificial harmonic
TH - tapped harmonic
SH - semi harmonic
PH - pitch harmonic
h - hammer on
p - pull off
b - bend
br - bendRelease
pb - preBend
pbr - preBendRelease
brb - bendReleaseBend
\n/ - tremolo bar dip
\n - tremolo bar dive
-/n - tremolo bar Release up
/n\ - tremolo bar inverted dip
/n - tremolo bar return
-\n - tremolo bar Release down
S - shift slide
s - legato slide
/ -  slide into from below or out of upwards
\ -  slide into from above or out of downwards
~ - vibrato
W - wide vibrato
tr - trill
TP - tremolo picking
T - tapping
S - slap
P - pop
< - fade in
^ - brush up
v - brush down
Login or Register to remove this ad.