Traverse Town (Kingdom Hearts) Guitar Tab

Submitted: May 29, 2015 by Hiroku

0
Download | Listen
Game: Kingdom Hearts
Composer(s): Yoko Shimomura
Style: Transcription
Series: Kingdom Hearts

AutoScroll: Slow | Medium | Fast
           |-3-|                                     |-3-|
    Q.   E Q Q Q   Q  Q  H      Q  Q  Q  Q    E Q  E Q Q Q
||---------------|------------|-------------|---------------||
||o--------------|------------|-------------|--------------o||
||---------------|------------|-------------|---------------||
||-------0-3-2-0-|-2----------|----------0--|------------0--||
||o-3------------|----3-------|-0--3--2-----|---0--3-2-3---o||
||---------------|-------3----|-------------|---------------||


  H.      Q    H    H      Q  Q  Q  Q    Q  Q  Q  Q
|------------|-----------|-------------|-------------|
|------------|-----------|-------------|-------------|
|---------0--|------3----|-0-----------|-------------|
|-1----------|-3---------|----3--1--0--|-3--1--0-----|
|------------|-----------|-------------|----------1--|
|------------|-----------|-------------|-------------|


         |-3-|
  Q.   E Q Q Q   Q  Q  Q  Q    W          +W
|--------------|-------------|----------|--------*|
|--------------|-------------|----------|--------*|
|--------------|-------------|----------|--------*|
|----------0-1-|-0--3--1--0--|----------|--------*|
|-3----1-3-----|-------------|-3--------|-(3)----*|
|--------------|-------------|----------|--------*|


Original Song Key

             |-3--|                                            |-3--|
     Q.   E  Q  Q Q    Q   Q   H      Q   Q   Q  Q    E Q   E  Q  Q Q
||------------------|---------------|---------------|------------------||
||o-------9-12-11-9-|-11------------|------------9--|---------------9-o||
||--11--------------|-----11--------|-8--11--10-----|---8--11-10-11----||
||------------------|---------11----|---------------|------------------||
||o-----------------|---------------|---------------|-----------------o||
||------------------|---------------|---------------|------------------||


   H.      Q     H     H      Q   Q   Q  Q     Q   Q  Q  Q
|----------9--|-------12----|-9-------------|---------------|
|-10----------|-12----------|----12--10--9--|-12--10--9-----|
|-------------|-------------|---------------|------------9--|
|-------------|-------------|---------------|---------------|
|-------------|-------------|---------------|---------------|
|-------------|-------------|---------------|---------------|


           |-3--|
   Q.   E  Q Q  Q   Q   Q   Q  Q     W           +W
|-----------------|---------------|-----------|---------*|
|------------9-10-|-9--12--10--9--|-----------|---------*|
|-11----9-11------|---------------|-11--------|-(11)----*|
|-----------------|---------------|-----------|---------*|
|-----------------|---------------|-----------|---------*|
|-----------------|---------------|-----------|---------*|
Login or Register to remove this ad.