Login or Register to remove this ad.

Traverse Town (Kingdom Hearts) Guitar Tab

Submitted: Jan 22, 2012 by kenor

5
Average: 5 (10 votes)
Download | Listen
Game: Kingdom Hearts
Composer(s): Yoko Shimomura
Style: Arrangement, Fingerstyle
Series: Kingdom Hearts

AutoScroll: Slow | Medium | Fast
Traverse Town                                       
~Kingdom Hearts~

Composed by: Yoko Shimomura
Arranged by: kenor

BPM = 118
Capo 2


Guitar
------


     |--3-|  |--3-|              |--3-|  |--3-|            
     Q    E  Q    E  H           Q    E  Q    E  H         
E||----------0----------------|----------0----------------|
B||----------0-------0--------|----------0-------0--------|
G||-------1-------1--2--------|-------1-------1--2--------|
D||--2---------------4--------|--2---------------4--------|
A||---------------------------|---------------------------|
E||---------------------------|---------------------------|


  |--3-|  |--3-|  |--3-|  |-3|       |--3-|                    |--3-|       |--3-|        
  Q    E  Q    E  Q    E  E  Q       Q    E  Q    Q    Q       Q    E  Q    Q    E  Q     
--0------------2--5----4-----2----|--4-------0--------------|-----------------------2----|
----------0---------------0-------|-------0-------0---------|--2-------5----4------------|
-------1--------------------------|--------------------2----|-------2------------2-------|
--2---------------4---------------|--2------------4---------|--2------------4------------|
----------------------------------|-------------------------|----------------------------|
----------------------------------|-------------------------|----------------------------|


  |--3-|  |--3-|  |--3-|  |-3|       |--3-|  |--3-|            
  Q    E  Q    E  Q    E  E  Q       Q    E  Q    E  H         
-----------------------------2----|--0------------------------|
--2------------5--4----5----------|--0-------0-------0--------|
-------2------------------2-------|-------1-------1--2--------|
--2-------2-------4---------------|--2---------------4--------|
----------------------------------|---------------------------|
----------------------------------|---------------------------|


  |--3-|  |--3-|               |--3-|  |--3-|               |--3-|  |--3-|             
  Q    E  Q    E  Q    Q       Q    E  Q    E  Q    Q       Q    E  Q    E  Q    Q     
--0-------------------------|----------0-------0---------|----------0-------0---------|
--0-------0-------0---------|----------0-------0---------|----------0-------0---------|
-------1-------1--2---------|-------1-------1--2---------|-------1-------1--2---------|
--2---------------4---------|------------------4---------|------------------4---------|
-----------------------2----|-----------------------2----|-----------------------2----|
----------------------------|--0-------------------------|--0-------------------------|


  ^               ^                                                   
  |--3-|  |--3-|  |--3-|  |-3|       |--3-|  |--3-|  |--3-|  |--3-|   
  Q    E  Q    E  Q    E  E  Q       Q    E  Q    E  Q    E  Q    E   
--0------------2--5----4-----2----|--4-------------------------------|
--0-------------------------------|----------5-------0---------------|
--1---------------4----------2----|----------4---------------2-------|
----------2-------2---------------|-------6-------6-------4-------4--|
-------2------------------2-------|------------------2---------------|
--0-------------------------------|--0-------------------------------|


                                                     ^                
  |--3-|  |--3-|  |--3-|  |--3-|     |--3-|  |--3-|  |--3-|  |-3|     
  Q    E  Q    E  Q    E  Q    E     Q    E  Q    E  Q    E  E  Q     
--------------------------2-------|-----------------------------2----|
--2-------5-------4---------------|--2------------5--4----5----------|
---------------2---------------2--|----------2-------2---------------|
-------2---------------4----------|-------2------------------4-------|
--0---------------2---------------|--0---------------2---------------|
----------------------------------|----------------------------------|


                  ^                                                   
  |--3-|  |--3-|  |--3-|  |-3|       |--3-|  |--3-|  |--3-|  |--3-|   
  Q    E  Q    E  Q    E  E  Q       Q    E  Q    E  Q    E  Q    E   
--0------------2--5----4-----2----|--4-------------------------------|
----------------------------------|----------5-------0---------------|
----------1-------4----------2----|----------4---------------2-------|
------------------2---------------|-------6-------6-------4-------4--|
-------2------------------2-------|------------------2---------------|
--0-------------------------------|--0-------------------------------|


                                                     ^                
  |--3-|  |--3-|  |--3-|  |--3-|     |--3-|  |--3-|  |--3-|  |-3|     
  Q    E  Q    E  Q    E  Q    E     Q    E  Q    E  Q    E  E  Q     
--------------------------2-------|-----------------------------2----|
--2-------5-------4---------------|--2------------5--4----5----------|
---------------2---------------2--|----------2-------2---------------|
-------2---------------4----------|-------2------------------4-------|
--0---------------2---------------|--0---------------2---------------|
----------------------------------|----------------------------------|


  |--3-|  |--3-|  |--3-|  |--3-|     |--3-|  |--3-|   |--3-|  |--3-|   
  Q    E  Q    E  Q    E  Q    E     Q    E  Q    E   Q    E  Q    E   
--3-----------------------7-------|--5---------------10---------------|
---------------1------------------|----------7----------------7-------|
----------0-------0------------0--|-------7-------7--------7-------7--|
-------2---------------2----------|--0--------------------------------|
--3-------------------------------|-------------------0---------------|
----------------------------------|-----------------------------------|


  |--3-|  |----3---|  |--3-|  |--3-|     |--3-|  |--3-|  |----3---|  |--3-|   
  Q    E  S  S  E  E  Q    E  Q    E     Q    E  Q    E  S  S  E  E  Q    E   
--7-------5h-7p-5-----3-------2-------|--5-------3-------2h-3p-2-------------|
--8-------0-----------5-------3-------|--7-------5-------3-----------3-------|
-------0-----------0-------0-------0--|-------0-------0-----------0-------0--|
--------------------------------------|------------------------------0-------|
--------------------------------------|--------------------------------------|
--0-----------------------------------|--0-----------------------------------|


                  ^                                                   
  |--3-|  |--3-|  |--3-|  |-3|       |--3-|  |--3-|  |--3-|  |--3-|   
  Q    E  Q    E  Q    E  E  Q       Q    E  Q    E  Q    E  Q    E   
--0---------------0----2-----3----|--2-------5-------3-------2-------|
---------------3--1---------------|------------------3-------3-------|
----------0---------------0-------|-------2-------2-------2-------2--|
-------2--------------------------|--0-------------------------------|
--3-------------------------------|------------------0---------------|
------------------0---------------|----------------------------------|


  |--3-|  |--3-|              |--3-|  |--3-|               |--3-|  |--3-|             
  Q    E  Q    E  H           Q    E  Q    E  Q    Q       Q    E  Q    E  Q    Q     
--0------------------------|--0-------------------------|----------0-------0---------|
--0-------0-------0--------|--0-------0-------0---------|----------0-------0---------|
-------1-------1--2--------|-------1-------1--2---------|-------1-------1--2---------|
--2---------------4--------|--2---------------4---------|------------------4---------|
---------------------------|-----------------------2----|-----------------------2----|
---------------------------|----------------------------|--0-------------------------|


  |--3-|  |--3-|               |--3-|  |--3-|  |--3-|  |-3|     
  Q    E  Q    E  Q    Q       Q    E  Q    E  Q    E  E  Q     
----------0-------0---------|----------0---------------0-------|
----------0-------0---------|----------0---------------0-------|
-------1-------1--2---------|------------------2----1----------|
------------------4---------|--2------------4-------------4----|
-----------------------2----|-------2----------2---------------|
--0-------------------------|--0-------------------------------|


  |--3-|       |--3-|           |--3-|       |--3-|        
  Q    E  Q    Q    E   Q       Q    E  Q    Q    E  Q     
----------0---------7--------|-------0--------------------|
----------0---------7--------|--------------------0-------|
--1-----------------9p--8----|----------------------------|
----------2------------------|----------2------------4----|
-------2---------------------|--4------------6------------|
--0------------7-------------|--5------------7------------|


                  ^                                  ^                
  |--3-|  |--3-|  |--3-|  |-3|       |--3-|  |--3-|  |--3-|  |-3|     
  Q    E  Q    E  Q    E  E  Q       Q    E  Q    E  Q    E  E  Q     
-------0------------------0-------|--0------------2--5----4-----2----|
----------0---------------0-------|----------------------------------|
----------------------------------|----------1-------4----------2----|
---------------2--1----2-----4----|--2---------------2---------------|
--4---------------2---------------|-------2------------------2-------|
--5-------------------------------|--0-------------------------------|


  |--3-|  |--3-|  |--3-|  |--3-|     |--3-|  |--3-|  |--3-|  |--3-|   
  Q    E  Q    E  Q    E  Q    E     Q    E  Q    E  Q    E  Q    E   
--4-------------------------------|--------------------------2-------|
----------5-------0---------------|--2-------5-------4---------------|
----------4---------------2-------|---------------2---------------2--|
-------6-------6-------4-------4--|-------2---------------4----------|
------------------2---------------|--0---------------2---------------|
--0-------------------------------|----------------------------------|


                  ^                                                   
  |--3-|  |--3-|  |--3-|  |-3|       |--3-|  |--3-|  |--3-|  |--3-|   
  Q    E  Q    E  Q    E  E  Q       Q    E  Q    E  Q    E  Q    E   
-----------------------------2----|--3-----------------------7-------|
--2------------5--4----5----------|---------------1------------------|
----------2-------2---------------|----------0-------0------------0--|
-------2------------------4-------|-------2---------------2----------|
--0---------------2---------------|--3-------------------------------|
----------------------------------|----------------------------------|


  |--3-|  |--3-|   |--3-|  |--3-|     |--3-|  |----3---|  |--3-|  |--3-|   
  Q    E  Q    E   Q    E  Q    E     Q    E  S  S  E  E  Q    E  Q    E   
--5---------------10---------------|--7-------5h-7p-5-----3-------2-------|
----------7----------------7-------|--8-------0-----------5-------3-------|
-------7-------7--------7-------7--|-------0-----------0-------0-------0--|
--0--------------------------------|--------------------------------------|
-------------------0---------------|--------------------------------------|
-----------------------------------|--0-----------------------------------|


                                                         ^                
  |--3-|  |--3-|  |----3---|  |--3-|     |--3-|  |--3-|  |--3-|  |-3|     
  Q    E  Q    E  S  S  E  E  Q    E     Q    E  Q    E  Q    E  E  Q     
--5-------3-------2h-3p-2-------------|--0---------------0----2-----3----|
--7-------5-------3-----------3-------|---------------3--1---------------|
-------0-------0-----------0-------0--|----------0---------------0-------|
------------------------------0-------|-------2--------------------------|
--------------------------------------|--3-------------------------------|
--0-----------------------------------|------------------0---------------|


  |--3-|  |--3-|  |--3-|  |--3-|     |--3-|  |--3-|            
  Q    E  Q    E  Q    E  Q    E     Q    E  Q    E  H         
--2-------5-------3-------2-------|--0------------------------|
------------------3-------3-------|--0-------0-------0--------|
-------2-------2-------2-------2--|-------1-------1--2--------|
--0-------------------------------|--2---------------4--------|
------------------0---------------|---------------------------|
----------------------------------|---------------------------|


  |--3-|  |--3-|              |--3-|  |--3-|  |--3-|  |--3-|   
  Q    E  Q    E  H           Q    E  Q    E  Q    E  Q    E   
----------0----------------|----------0---------------0-------|
----------0-------0--------|----------0---------------0-------|
-------1-------1--2--------|-------1-------1-------2-------2--|
--2---------------4--------|--2---------------4---------------|
---------------------------|----------------------------------|
---------------------------|----------------------------------|


  |--3-|  |--3-|  |--3-|  |--3--|     |--3-|  |--3-|  |--3-|  |-3|     
  Q    E  Q    E  Q    E  E  E  E     Q    E  Q    E  Q    E  E  Q     
----------0---------------0--------|--0------------2--5----4-----2----|
----------0------------------0-----|----------0---------------0-------|
-------4-------4-------6--------6--|-------1--------------------------|
--6---------------7----------------|------------------4---------------|
-----------------------------------|----------------------------------|
-----------------------------------|--0-------------------------------|


  |--3-|                    |--3-|       |--3-|          |--3-|  |--3-|  |--3-|  |-3|     
  Q    E  Q    Q    Q       Q    E  Q    Q    E  Q       Q    E  Q    E  Q    E  E  Q     
--4-------0--------------|-----------------------2----|-----------------------------2----|
-------0-------0---------|--2-------5----4------------|--2------------5--4----5----------|
--------------------2----|-------2------------2-------|-------2------------------2-------|
--2------------4---------|--2------------4------------|--2-------2-------4---------------|
-------------------------|----------------------------|----------------------------------|
-------------------------|----------------------------|----------------------------------|


  |--3-|  |--3-|              |--3-|  |--3-|              |--3-|  |--3-|            
  Q    E  Q    E  H           Q    E  Q    E  H           Q    E  Q    E  H         
--0------------------------|----------0----------------|----------0----------------|
--0-------0-------0--------|----------0-------0--------|----------0-------0--------|
-------1-------1--2--------|-------1-------1--2--------|-------1-------1--2--------|
--2---------------4--------|--2---------------4--------|--2---------------4--------|
---------------------------|---------------------------|---------------------------|
---------------------------|---------------------------|---------------------------|


  |--3-|  |--3-|              |--3-|  |--3-|             
  Q    E  Q    E  H           Q    E  Q    E  H          
----------0----------------|----------0----------------||
----------0-------0--------|----------0-------0--------||
-------1-------1--2--------|-------1-------1--2--------||
--2---------------4--------|--2---------------4--------||
---------------------------|---------------------------||
---------------------------|---------------------------||




Legend
------
H - half
Q - quarter
E - 8th
S - 16th
. - note dotted
|-n-|  - n-tuplets
L - tied note
h - hammer on
p - pull off
^ - brush up
Login or Register to remove this ad.

7 comments on Traverse Town

I always enjoy your

5

I always enjoy your arrangements. I hope you'll make a recording of this :).

Yes ! Another awesome tab from Kenor :D

5

& very pleasant to play (After 5 min to visualize what bar chords must be played & where), I'm fan !

This is a pretty good

5

This is a pretty good arrangement of this piece. It actually enables you to "connect" the notes which isn't something a lot of arrangements make possible. I know my comment is pretty old, but I was curious as to whether you based your arrangement off of the Piano Collections version. It reminds me a lot of it. :)

Hey I missed this one for

Hey I missed this one for some reason! Thanks for commenting on the tab so I would notice it! It's a really good one=)

Lol. No problem. It is a

Lol. No problem. It is a really good arrangement of this piece. Glad you were able to find it. :)

Yes, the arrangement is

Yes, the arrangement is indeed heavily inspired by the Piano Collections version :)

Very nice! I like the octave

5

Very nice! I like the octave drop you did in the middle for flavor. :-)