Login or Register to remove this ad.

Traverse Town (Kingdom Hearts) Guitar Tab

Submitted: Apr 26, 2009 by Kabukibear (Last updated: Nov 27, 2009)

4.81818
Average: 4.8 (22 votes)
Download | Listen
Game: Kingdom Hearts
Composer(s): Yoko Shimomura
Style: Arrangement, Fingerstyle
Series: Kingdom Hearts

AutoScroll: Slow | Medium | Fast
Traverse Town                                   
~Kingdom Hearts~
Composed by: Yoko Shimomura
Arranged by: Justin Lincoln

Drop D Tuning
(Capo 4)

                 |--3-|  |-3|                                
     E.  S E  E  Q    E  E  Q       E.  S E.  S E.  S E.  S  
E||-----------0--3----2-----0----|--2-----------------------|
B||--3---------------------------|--------3-----------------|
G||------------------------------|--------------2-----------|
D||--------0-----2---------------|--------0-----2---0-----0-|
A||------0---------------0-------|------0-----0-------4-----|
D||--0---------------------------|--0-----------------------|


                                        |--3-|  |-3|     
  E.  S Q    E.  S E.  S    E.  S E  E  Q    E  E  Q     
-------------------0-----|-------------------------0----|
--0-----3----2-----------|--0--------3--2----3----------|
--------0----------2-----|--------0---------------------|
------0----------2-----2-|------0---------------2-------|
-------------0-----------|--------------0---------------|
--5----------------------|--5---------------------------|


              |--3-|  |-3|                                
  E.  S E  E  Q    E  E  Q       E.  S E.  S E.  S E.  S  
-----------0--3----2-----0----|--2-----------------------|
--3---------------------------|--------3-----------------|
------------------------------|--------------2-----------|
--------0-----2---------------|--------0-----2---0-----0-|
------0---------------0-------|------0-----0-------4-----|
--0---------------------------|--0-----------------------|


                                        |--3-|  |-3|     
  E.  S Q    E.  S Q       E  S S E  E  Q    E  E  Q     
-------------------0----|--------------------------0----|
--0-----3----2----------|-----0------3--2----3----------|
--------0----------2----|---------0---------------------|
------0----------2------|-------0---------------2-------|
-------------0----------|---------------0---------------|
--5---------------------|--5----------------------------|

  I--------------- III-----------------  V-----------
  E.  S E.  S E.  S E.  S    E.  S E.  S E.  S E.  S  
--1-----------------5-----|--3-----------8-----------|
--------------3-----------|--------------5-----------|
--------3---------3-----3-|--------5---------5-----5-|
------3-----3-------3-----|------5-----5-------5-----|
--1-----------------------|--3-----------------------|
--------------------------|--------------------------|


  E.  S T  T  E.  E.  S E.  S    E.  S E.  T  T  E.  S E.  S  
--5-----3h-5p-3---1-----0-----|--3-----1---0h-1p-0-----------|
------------------------------|------------------------1-----|
----------------------2-----2-|----------------------2-------|
--------0---------2-----------|--------0---------2---------2-|
------0-----------------0-----|------0-----------------0-----|
--0---------------------------|--0---------------------------|

  I----------
              |--3-|  |-3|                                
  E.  S E  E  Q    E  E  Q       E.  S E.  S E.  S E.  S  
-------------------0-----1----|--0-----3-----1-----0-----|
--3--------1--3---------------|--------1-----------------|
--------3---------------------|------0-----0-----0-----0-|
------3---------------3-------|--------------0-----------|
--1-----------1---------------|--3-----------------3-----|
------------------------------|--------------------------|


  E.  S E.  S E.  S E.  S    W                   
--------------------------|--------------------||
--3-----------------------|--3-----------------||
--------------0---------0-|-------------------*||
--------0---------0-------|--4----------------*||
------0-----0-------0-----|--------------------||
--0-----------------------|--0-----------------||




Duration Legend
---------------
W - whole
H - half
Q - quarter
E - 8th
S - 16th
T - 32nd
X - 64th
. - note dotted
|-n-|  - n-tuplets


Tablature Legend
----------------
h - hammer on
p - pull off
Login or Register to remove this ad.

8 comments on Traverse Town

Great arrangement. =D

5

Great arrangement. =D

nice job

5

Great job man love this tab keep it up =)

:3

Amazing. woo!

Dude, that is..

5

The best thing I have ever seen.

Greatest TAB for Traverse Town on the net, I'm sure.
Even better that JoanSteret guy's version ^_^

Wow, once you take it note by

5

Wow, once you take it note by note the timing isn't as hard as it looks. Love this arrangement man. Definitely one of the better arrangements you've made in my opinion (that's saying a lot).

This is a really cool

5

This is a really cool arrangement!... although my classical guitar hates capos for some reason.. =/

Perfect.

5

Perfect.

thanks

5

this is the first song i felt the fluidity of the music. ... when I play this it flows in a constant way that helps me understand what I have to do to make it work right...its hard to explain but this tab was an epiphany for me I guess. For the way I play and that I can actually go faster