This is Halloween (Kingdom Hearts) Guitar Tab

Submitted: Aug 24, 2009 by Asa

5
Average: 5 (7 votes)
Download | Listen
Game: Kingdom Hearts
Composer(s): Yoko Shimomura
Style: Transcription
Series: Kingdom Hearts

AutoScroll: Slow | Medium | Fast
This is Halloween
Kingdom Hearts
Danny Elfman
Kingdom Hearts OST (disc 2) - Track 13

Tabbed by Aj Franks
02/13/09

Intro

e|----------------------------------------------------------
b|--8--8--8--8-9--6--6--6--6-9-8--8--8--8-9-6--6-9-8--8~----
G|----------------------------------------------------------
D|----------------------------------------------------------
A|----------------------------------------------------------
E|----------------------------------------------------------


Verse

   Boys and    ...    age. Wouldn't  ...  strange? Come with  ...  see,  this our town of Halloween
e|-------------------------------------------------------------------------------------------------
b|--8--8--8--8--8-9-6--6~---6--6--6--6--6-8-9-8~---8--8--8--9-11~-9p8-6~---6--6--6-8-9--8-----8----
G|----------------------------------------------------------------------------------------8-7------
D|-------------------------------------------------------------------------------------------------
A|-------------------------------------------------------------------------------------------------
E|-------------------------------------------------------------------------------------------------


   This is Halloween...                 Pumpkins scream...
e|---------------------------------------------------------------
b|--11--11--11-10-8----11--11--11-10-8----11--------------8-9~---
G|-------------------------------------------10-10~-8-6-5--------
D|---------------------------------------------------------------
A|---------------------------------------------------------------
E|---------------------------------------------------------------

   This is Halloween...                       Trick or treat...
e|--------------------------------------------------------------
b|--12--12--12-11-9----12-12-12-12-12-11-9----12----------------
G|-----------------------------------------------12-12~-11-9~---
D|--------------------------------------------------------------
A|--------------------------------------------------------------
E|--------------------------------------------------------------


Bridge
   It's our town...
e|------------------------
b|------------------------
G|--8--8--9~---8--8--9~---
D|------------------------
A|------------------------
E|------------------------

e|--5--13-13-------------------
b|------------10--9--10-12-14--
G|-----------------------------
D|-----------------------------
A|-----------------------------
E|-----------------------------

e|--17--16---14---------------14--16---18-------21--19---17--16--17--19--21--23----
b|----------------16--14--16---------------14--------------------------------------
G|---------------------------------------------------------------------------------
D|---------------------------------------------------------------------------------
A|---------------------------------------------------------------------------------
E|---------------------------------------------------------------------------------




Outro
    This is Halloween         ....      Halloween  Halloween   ...      ...
e|--11--11--11-10-8----11--11--11-10-8------------------------------------------
b|--------------------------------------12-11-9~---12-11-9~---9-8-6~---9-8-6~---
G|------------------------------------------------------------------------------
D|------------------------------------------------------------------------------
A|------------------------------------------------------------------------------
E|------------------------------------------------------------------------------

   In this town...    Everyone hail to the pumpkin song
e|-----------------------------------------------
b|-----------------------------------------------
G|--8--8--9~---8--8--9~---8--8--8--6-----8~------
D|-----------------------------------9-8----6~---
A|-----------------------------------------------
E|-----------------------------------------------



Game OST repeats from beginning and fades out.
Login or Register to remove this ad.

5 comments on This is Halloween

Dude i love this

5

Dude i love this

Awesome!!!!!

5

This game and song is the best!!!!!!!

I LOVED this tab

I LOVED this tab

Thanks!!

5

Good Work man, thanks for this tab ;)

great

5

great job bro