Ads

Kairi's Theme (Kingdom Hearts) Guitar Tab

Submitted: Jul 29, 2012 by JordanVS

5
Average: 5 (8 votes)
Download | Listen
Game: Kingdom Hearts
Composer(s): Yoko Shimomura
Style: Arrangement, Fingerstyle
Series: Kingdom Hearts

AutoScroll: Slow | Medium | Fast
Kairi's Theme                                
Kingdom Hearts I
Yoko Shimomura
JordanVS

To fulfill Zee Captain's request =D


*Capo on 3rd



     ^            ^            ^            ^          
     Q    S S S S Q.     E     Q    S S S S Q.     E   
E||-------------0-----------|-------------0-----------|
B||--0----L-1-3---0---------|--0----L-1-3---0---------|
G||--0----L--------------2--|--0----L--------------2--|
D||--2----L-------3---------|--2----L-------3---------|
A||--3----L-------3---------|--3----L-------3---------|
E||---------------1---------|---------------1---------|


  ^                                                      
  E  E  S S S S E  E  E  E     E  E  S S S S E.  E.  E   
--------------0-------------|---------------------------|
--0-------1-3---0-----------|--0---------0-1------------|
--0-----0----------------2--|----------2-----0-------0--|
-----2----------------3-----|--------0-----------2------|
--3----------------3--------|-----2----------3----------|
----------------1-----------|--3------------------------|


                                                  ^  ^   
  Q    S S S S E  E  E  E     E  E  S S S S E  E  E  E   
-------------0-------------|-------------------------0--|
---------------3--------3--|--3-------1-3-1-0--1--3-----|
-----------2---------------|----------------------------|
--3----L-3-----------2-----|--------3----------0--0--2--|
--0----L----------2--------|-----3----------------------|
---------------0-----------|--1-------------3-----------|


  ^            ^            ^            ^          
  Q    S S S S Q.     E     Q    S S S S Q.     E   
-------------0-----------|-------------0-----------|
--0----L-1-3---0---------|--0----L-1-3---0---------|
--0----L--------------2--|--0----L--------------2--|
--2----L-------3---------|--2----L-------3---------|
--3----L-------3---------|--3----L-------3---------|
---------------1---------|---------------1---------|


  ^               ^             ^               ^           
  Q    S S  S  S  Q.      E     Q    S S  S  S  Q.      E   
--7----L-8-10-12-------------|--7----L-8-10-12-------------|
--0----L---------12------10--|--0----L---------12------10--|
--0----L---------10----------|--0----L---------10----------|
-----------------10----------|-----------------10----------|
------------------8----------|------------------8----------|
--8----L---------------------|--8----L---------------------|


  E  E  S S  S  S  E   E   E   E     E  E  S S S S E   E   E  E   
--7-------8-10-12-----------------|--7-------5-7-8---------------|
--------0---------12----------10--|------------0---8----------8--|
-----0--------------------10------|--------0------------------9--|
----------------------10----------|-----0-----------------10-----|
-------------------8--------------|-------------------10---------|
--8-------------------------------|--8-------------8-------------|


                                    ^                     ^   ^   
   Q     S  S  S  E  E  E   E.      Q     S S  S S E  E   E   E   
--------------12-10--------10---|--10-------8-10-8-7--8--10--12--|
-----------10-------------------|--------------------------------|
--10----10--------------9-------|--10----10--------0------7---9--|
---------------------9----------|--10-----------------0----------|
---0----------------------------|---8----------------------------|
------------------0-------------|--------------------------------|


  ^                  
  W                  
--7----------------||
--0----------------||
--0----------------||
-------------------||
-------------------||
--8----------------||




Duration Legend
---------------
W - whole
H - half
Q - quarter
E - 8th
S - 16th
. - note dotted


Tablature Legend
----------------
L - tied note
^ - brush up
v - brush down
Login or Register to remove this ad.

3 comments on Kairi's Theme

I love this!!!!

5

I love this tab! Damn, it's so peaceful and relaxing I could play it all day long...
Thanks for fufilling my request! This tab is amazing, and I say it deserves five stars from me :)

amazing

created an account just to tell you how perfect this tab is. well done!

This is just beautiful.

5

I cannot tell any errors in this song, and the wall of nostalgia just hits me so hard when I play it. Thank you so very much for this.