Kairi's Theme (Kingdom Hearts) Guitar Tab

Submitted: Mar 07, 2019 by guitarsvd (Last updated: Mar 13, 2019)

5
Average: 5 (3 votes)
Download | Listen
Game: Kingdom Hearts
Composer(s): Yoko Shimomura
Style: Arrangement, Artificial harmonics, Fingerstyle, Natural harmonics
Series: Kingdom Hearts

Click here for a video example.

AutoScroll: Slow | Medium | Fast
Kairi's Theme                                   


                                                  arr. by Cecil Chau (GuitarSVD)
Track 1



           ^           ^              ^           ^      
     E  E  E  E  E  E  E  E     E  E  E  E  E  E  E  E   
E||-----------2--------------|-----------2--------------|
B||--------2-----------0--3--|--L-----2-----------0--3--|
G||-----2--2-----------4-----|-----2--2-----------4-----|
D||--------0--------5--5-----|--------0--------5--5-----|
A||--------------------------|--------------------------|
D||--0-----------5-----------|--0-----------5-----------|


            NH   NH  NH                         NH   NH  NH             
  E  E  S   S    S   S E  E  E  E     E  E  S   S    S   S E  E  E  E   
--9-----L-----<>12-----9--------7--|--9-----L-----<>12-----9--------7--|
--------7----------<>7-------7-----|--------7----------<>7-------7-----|
----------<>7-------------0--7-----|----------<>7-------------0--7-----|
-----0-----------------------------|-----0-----------------------------|
-----------------------------------|-----------------------------------|
--0--------------------5-----------|--0--------------------5-----------|


  E  E  S S S S E  E  E  E     E  E  S S S S Q    E  E   
------------0-2-------------|---------------------------|
--2-----L-3-----2--------0--|--2-----L-0-2-3------------|
--------2-------------0-----|--------2-------2-------2--|
-----0-------------0--------|-----2----------0----0-----|
----------------------------|--0------------------------|
--0-------------5-----------|----------------0----------|


  E  E  S S S S E  E  E  E     E  E  S S S S E  E  E  E   
--------------2-0--------0--|--0-----L---0---------0--2--|
------------0---------2-----|--------0-3---3-2--3-----2--|
--0-----L-0-----------2-----|--------0-------------2-----|
--------2-------------------|-----0-------------2--------|
-----2-------------4--------|----------------0-----------|
--2-------------4-----------|--5-------------------------|


  E  E   S  S  S  S E  E  E  E     E  E   S  S  S  S E  E  E  E   
--9------L-10-12-14-9--------7--|--L--9---L-10-12-14-9--------7--|
--L-----------------------0-----|--------------------------0-----|
--------11-------------0-----0--|--------11-------------0-----0--|
--------11----------------------|--------11----------------------|
-----9--------------7-----------|-----9--------------7-----------|
--9-----------------------------|--9-----------------------------|


  E  E  S  S  S  S E  E  E  E     E  E  S  S  S  S E  E  E  E   
--L--9--L-10-12-14-9--------7--|--L--9--L-10-12-14-9--------7--|
--------7----------------7-----|--------7----------------7-----|
-----6--6-------------0--7-----|-----6--6-------------0--7-----|
-------------------------------|-------------------------------|
-------------------------------|-------------------------------|
--0----------------5-----------|--0----------------5-----------|


  E  E  S S S S E  E  E  E     E  E  S S S S Q    E  E   
------------0-2-------------|---------------------------|
--2-----L-3-----2--------0--|--2-----L-0-2-3------------|
--------2-------------0-----|--------2-------2-------2--|
-----0-------------0--------|-----2----------0----0-----|
----------------------------|--0------------------------|
--0-------------5-----------|----------------0----------|


  E  E  S S S S E  E  E  E     E  E  S S S S E  E  E  E   
--------------2-0--------0--|--0-----L---0---------0--2--|
------------0---------2-----|--------0-3---3-2--3-----2--|
--0-----L-0-----------2-----|--------0-------------2-----|
--------2-------------------|-----0-------------2--------|
-----2-------------4--------|----------------0-----------|
--2-------------4-----------|--5-------------------------|


  >                  >                >                  >             
  E   E   S  S  S  S E   E   E  E     E   E   S  S  S  S E  E  E   E   
--9-------L-10-12-14-9----------7--|--L---9---L-10-12-14-9--------10--|
--L----------------------0---0-----|------------------------------12--|
-------------------------0---0-----|------------------------------11--|
--9--11--11-------------11--11-----|--9--11--12----------6--9--9------|
------9---9----------7-------------|------9---9-------------9--9------|
--9--------------------------------|--9------------------6------------|


  E  E  E  E  S S S  S E  E     E  E  E  E  E  E     E  E    E  E    Q     
--L-----5-----L-7-9-10-9-----|-----------2-----2--|--L--5--<>2-------L----|
--------------0--------6-----|--------2-----3-----|----------2-----<>3----|
--------7--6--7--------6-----|-----2-----2-----4--|-----2-------2----4----|
-----7-----------------6-----|--------4-----4-----|--4--------------------|
--0---------------9-------4--|-----4--------------|-----------------------|
-----------------------------|--4-----------------|-----------------------|


  E.  S S S Q    E     E  S S S  S E  E  E     E.  S S S E  E  E   
--4---5-7-9-4-------|-----7--------0--5--0--|--------2-9-7-----7--|
--------9--------7--|--9----7-9-10-------2--|--3---3-3------9-----|
--6---------4-------|---------7----2--------|--4---------------6--|
--4-----------------|--9--------------------|------------6--------|
--------------------|--7-----------4--------|---------------------|
--------------------|-----------------------|---------------------|


  E.  S S  S S S E  S S    S S S S S S S S S S S S    S S S S S  S S S S S S S  
--7---5-7----4---5--7-9-|--4-----5-7-9-4-------2---|------7--------0-----------|
--0-----9-10------------|------------------2-----3-|--9-----7-9-10-------3-2---|
---------------6-7--6---|--------------------3-4---|------9---9--------2---2---|
------------------------|------6-4-6-7---4---------|----9---9----9---2-------2-|
--5----------4----------|----4---------2-----------|--7------------0-----------|
------------------------|--4-----------------------|---------------------------|


                                         |-3-| |-3-| |-3-|  
  S S S S S S S S S S S S    S S S S S S S S S S S S S S S  
--------------------------|--1-----0---------------0-----5-|
--3-----2-----------5-----|----------3-1-----0-1-3---6-8---|
------4-4-4-2-4---4---4---|------2-L-----0-2---------------|
----4-----------6-------6-|----0---------0-----------------|
--2-----------4-----------|--------------------2-----------|
--------------------------|--0-----------------------5-----|


   |-6-| |--6--|             |--6--|  |----6----|            
   S S S S S   S   S S  S  S S  S  S  S    S    S    E   E   
---7---0---7-----<>7-8-10-12-7------------------------------|
-----0---8---<>8---------------------10-----------<>10--10--|
---0-----------------5--7--9------10---------<>10-----------|
-------------------------------10-------<>10----------------|
-----------------------------8------------------------------|
--10--------------------------------------------------------|


  |-6-| |---6---|           |-6-| |---6---|          
  S S S S   S   S   S S S S S S S S   S   S   E  E   
--7-----7---------<>7-5-7-8-3---------------<>3--3--|
------8-------<>8-----------------5-----<>5---------|
----7-----<>7---------2-4-5-----5---<>5-------------|
------------------------------5---------------------|
----------------------------3-----------------------|
--5-------------------------------------------------|


  |-3-|  |-3-|  |-3-|  |-3-| |-3-| |-3-| |-3-| |-3-|  
  S S S  S S S  S S S  S S S S S S S S S S S S S S S  
--1-----13-----12-----10-----8-----7-----5-----3-----|
--3-----10-----10-----10-----0-----0-----0-----0-----|
--2-----10-----10-----10-----0-0-0-0-0-0-0-0-0-0-0-0-|
----0-0--0-0-0--0-0-0--0-0-0-------------------------|
-----------------------------------------------------|
--0--------------------------0-----------------------|


  |-3-|   |-3-|         |-3-|             
  S S S   S S S   E  E  S S S E  S S S S  
--5-----<>5-----<>3--------------------5-|
---------------------6--5-----3--5-6-8---|
----5-5---5-5-5---5--5------0-0----------|
------------------5--5----0--------------|
-----------------------------------------|
--3---------------------5----------------|


   |-6-| |--6--|             |-6-|  |--6-| |--6-|  |--6-|  
   S S S S S   S   S S  S  S S S S  S S  S S  S S  S S  S  
---7---0---7-----<>7-8-10-12-7-8-7----7-------------------|
-----0---8---<>8-------------------10---10-8-10-8----8----|
---0-----------------5--7--9--------7-------------10---10-|
---------------------------------------------------7------|
-----------------------------8-------------8--------------|
--10------------------------------------------------------|


  |-6-| |---6---|           |-6-| |-6-| |-6-| |-6-|  
  S S S S   S   S   S S S S S S S S S S S S S S S S  
--7-----7---------<>7-5-7-8-3-------3-----3-----3---|
------8-------<>8-------------6-5-3---3-------------|
----7-----<>7---------2-4-5-------5-----5---5-4---4-|
----------------------------------------------5-----|
----------------------------3-----------------------|
--5-------------------------------------------------|


  |-6-| |-6-| |-6-|  |--6--| |-6-| |-6-|  |--6--|       
  S S S S S S S S S  S  S  S S S S S S S  S  S  S   E   
--1---------------5-13----17-3-----------------12-<>3--|
--------3---3-6--------15------------0------12---------|
------2---2-----7------------------0---0-12------------|
----0----------------------------2---------------------|
-------------------------------2-----------------------|
--0--------------------------2-------------------------|


  |-6-| |-6-| 6 --|3| |3|                                           
  S S S S S S S T T S S T S  H            Q     S S  S  S H         
--7-----------7---5---7---8-15--------|--10-----L-8-10-12-7--------|
--------6---6-----------6-------------|--10---------------0--------|
----------5-----5---5-------12--------|--10---------------0--------|
------3---------------------14--------|----------------------------|
----3---------------------------------|---8------------------------|
--3-----------------------------------|----------------------------|


                                                        NH                 
  Q    H.              E  E  E  E  E  E   E    E        W                  
--8----7------------|-----------0--7-----10-------|--<>12----------------||
--6----8------------|--------3--------8------<>8--|--<>12----------------||
-------0------------|-----0-----------------------|-----9----------------||
--------------------|-----------------------------|----10----------------||
--------------------|--3--------------------------|----------------------||
--3----5------------|-----------------------------|----------------------||




Duration Legend
---------------
W - whole
H - half
Q - quarter
E - 8th
S - 16th
T - 32nd
X - 64th
. - note dotted
|-n-|  - n-tuplets


Tablature Legend
----------------
L - tied note
x - dead note
g - grace note
(n) - ghost note
> - accentuded note
NH - natural harmonic
AH - artificial harmonic
TH - tapped harmonic
SH - semi harmonic
PH - pitch harmonic
h - hammer on
p - pull off
b - bend
br - bendRelease
pb - preBend
pbr - preBendRelease
brb - bendReleaseBend
\n/ - tremolo bar dip
\n - tremolo bar dive
-/n - tremolo bar Release up
/n\ - tremolo bar inverted dip
/n - tremolo bar return
-\n - tremolo bar Release down
S - shift slide
s - legato slide
/ -  slide into from below or out of upwards
\ -  slide into from above or out of downwards
~ - vibrato
W - wide vibrato
tr - trill
TP - tremolo picking
T - tapping
S - slap
P - pop
< - fade in
^ - brush up
v - brush down
Login or Register to remove this ad.