Ads

Hollow Bastion (Kingdom Hearts) Guitar Tab

Submitted: Dec 15, 2011 by Omnicide

4.923075
Average: 4.9 (13 votes)
Download | Listen
Game: Kingdom Hearts
Composer(s): Yoko Shimomura
Style: Arrangement, Fingerstyle, Natural harmonics
Series: Kingdom Hearts

AutoScroll: Slow | Medium | Fast
Hollow Bastion
Kingdom Hearts
Composed by Yoko Shimomura
Arranged by William Geesdorf


     E  E  E  E  E  E  E  E  E  E     E  E  E  E  E  E  E  E  E  E   
E||--------------------------------|--------------------------------|
B||-----------------------------2--|-----------------------------2--|
G||-----0-----4-----0-----0--------|-----0-----4-----0-----0--------|
D||--4-----4-----4-----4-----4-----|--4-----4-----4-----4-----4-----|
A||--2-----------------------------|--2-----------------------------|
E||--------------------------------|--------------------------------|


  E  E  E  E  E  E  E  E  E  E     E  E  E  E  E  E  E  E  E  E   
--------------------------------|--------------------------------|
-----------------------------2--|-----------------------------2--|
-----0-----4-----0-----0--------|-----0-----4-----0-----0--------|
--4-----4-----4-----4-----4-----|--4-----4-----4-----4-----4-----|
--2--------2--------2-----2-----|--2--------2--------2-----------|
--------------------------------|--------------------------2-----|


    E  E  E  E  E  E  E  E  E  E     E  E  E  E  E  E  E  E  E  E   
|---------------------------------|--------------------------------|
|------------------------------2--|-----------------------------2--|
|*-----0-----4-----0-----0--------|-----0-----4-----0-----0--------|
|*--4-----4-----4-----4-----4-----|--4-----4-----4-----4-----4-----|
|---2--------2--------2-----2-----|--2--------2--------2-----2-----|
|---------------------------------|--------------------------------|


  E  E  E  E  E  E  E  E  E  E     E  E  E  E  E  E  E  E  E  E     
-----------------------------0--|-----------2---------------------||
--3--2-----5--------3--2--3-----|--3--2--3-----5--3--5--2--3------||
--------4-----7--6--------------|-----------------------------4--*||
--------------------0-----------|--------------------------------*||
--2--------4--------------4-----|--2--------2--------2------------||
--------------------------------|--------------------------2------||


  E  E  E  E  E  E  E  E  E  E     E  E  E  E  E  E  E  E  E  E   
--------------------------------|--------------------------------|
-----------------------------2--|--------------------------------|
-----0-----4-----0-----0--------|-----0-----4-----0-----0-----6--|
--4-----4-----4-----4-----4-----|--4-----4-----4-----4-----4-----|
--2--------2--------2-----2-----|--5--------5--------5-----5--4--|
--------------------------------|--------------------------------|


  E  E  E  E  E  E  E  E  E  E     E  E  E  E  E  E  E  E  E  E   
--------------------------------|-----------2--------------------|
--3--2-----5--3--2--3--2--3--5--|--3--2--3-----5--3--5--2--3-----|
--------4-----------------------|-----------------------------4--|
--------------------2-----0-----|--------------------------------|
--2--------2-----------------4--|--2--------2--------2-----------|
--------------------------------|--------------------------2-----|


  E  E  E  E  E  E  E  E  E  E     E  E  E  E  E  E  E  E  E  E   
--------------------------------|--------------------------2--3--|
--------3--------3--------0-----|--------2--------3--------0-----|
-----------------------4-----4--|-----------------------2-----2--|
-----5--------5-----2-----2-----|-----4--------4-----0-----0-----|
--------------------------------|--------------------------------|
--3--------3--------------------|--2--------2--------------------|


  E  E  E  E  E  E  E  E  E  E     E  E  E  E  E  E  E  E  E  E   
--5-----3--------2--0-----------|--------------------------------|
--------3--------3--------0-----|--------2--------3--3-----2-----|
-----------------------4-----4--|-----------------------2-----2--|
-----5--------5-----2-----2-----|-----4--------4-----0-----0-----|
--------------------------------|--------------------------------|
--3--------3--------------------|--2--------2--------------------|


  ^     ^  v     v  ^  v  ^  v     ^     ^  v     v  ^  v  ^  v   
  E  E  E  E  E  E  E  E  E  E     E  E  E  E  E  E  E  E  E  E   
--2-----2--2-----2--2--2--2--2--|--2-----2--2-----2--2--2--2--2--|
--2-----2--3-----3--2--2--3--3--|--2-----2--3-----3--2--2--3--3--|
--4-----4--4-----4--4--4--4--4--|--4-----4--4-----4--4--4--4--4--|
--4-----4--4-----4--4--4--4--4--|--4-----4--4-----4--4--4--4--4--|
--------------------------------|--------------------------------|
--------------------------------|--------------------------------|


  ^     ^  v     v  ^  v  ^  v     ^     ^  v     v  ^  v  ^  v   
  E  E  E  E  E  E  E  E  E  E     E  E  E  E  E  E  E  E  E  E   
--2-----2--3-----3--2--2--3--3--|--2-----2--2-----2--0--0--2--2--|
--3-----3--3-----3--3--3--3--3--|--3-----3--3-----3--3--3--3--3--|
--4-----4--4-----4--4--4--4--4--|--4-----4--4-----4--4--4--4--4--|
--5-----5--5-----5--5--5--5--5--|--4-----4--4-----4--4--4--4--4--|
--------------------------------|--------------------------------|
--------------------------------|--------------------------------|


  ^     ^  v     v  ^  v  ^  v     ^     ^  v     v  ^  v  ^  v   
  E  E  E  E  E  E  E  E  E  E     E  E  E  E  E  E  E  E  E  E   
--2-----2--2-----2--2--2--2--2--|--2-----2--2-----2--2--2--2--2--|
--2-----2--3-----3--2--2--3--3--|--2-----2--3-----3--2--2--3--3--|
--4-----4--4-----4--4--4--4--4--|--4-----4--4-----4--4--4--4--4--|
--4-----4--4-----4--4--4--4--4--|--4-----4--4-----4--4--4--4--4--|
--2-----2--2-----2--2--2--2--2--|--2-----2--2-----2--2--2--2--2--|
--------------------------------|--------------------------------|


   ^      ^   v      v   ^   v   ^   v     ^     ^  v     v  ^  v  ^  v   
   E  E   E   E  E   E   E   E   E   E     E  E  E  E  E  E  E  E  E  E   
----------------------------------------|--2-----2--2-----2--0--0--2--2--|
---7------7---8------8---7---7---8---8--|--3-----3--3-----3--3--3--3--3--|
---7------7---7------7---7---7---7---7--|--4-----4--4-----4--4--4--4--4--|
---9------9---9------9---9---9---9---9--|--4-----4--4-----4--4--4--4--4--|
--10-----10--10-----10--10--10--10--10--|--2-----2--2-----2--2--2--2--2--|
---7------7---7------7---7---7---7---7--|--------------------------------|


  E  E  E  E  E  E  E  E  E  E     E  E  E  E  E  E  E  E  E  E   
--------------------------------|--------------------------------|
-----------------------------2--|--------------------------------|
-----0-----4-----0-----0--------|-----0-----4-----0-----0-----6--|
--4-----4-----4-----4-----4-----|--4-----4-----4-----4-----4-----|
--2--------2--------2-----2-----|--5--------5--------5-----5-----|
--------------------------------|--------------------------------|


  E  E  E  E  E  E  E  E  E  E     E  E  E  E  E  E  E  E  E  E   
--------------------------------|-----------3--------------------|
--5--3-----7--5--3--5--3--5--7--|--5--3--------7--5--7--5--7--3--|
--------5-----------------------|--------5-----------------------|
--------------------------------|--------------------------------|
--3--------3--------3-----3-----|--3--------3--------3-----3-----|
--------------------------------|--------------------------------|


  E  E  E  E  E  E  E  E  E  E     E  E  E  E  E  E  E  E  E  E   
--------------------------------|--------------------------------|
-----------------------------2--|--------------------------------|
-----0-----4-----0-----0--------|-----0-----4-----0-----0-----6--|
--4-----4-----4-----4-----4-----|--4-----4-----4-----4-----4-----|
--2--------2--------2-----2-----|--------------------------------|
--------------------------------|--0--------0--------0-----0-----|


  E  E  E  E  E  E  E  E  E  E     E  E  E  E  E  E  E  E  E  E   
--------------------------------|-----------3--------------------|
--5--3-----7--5--3--5--3--5--7--|--5--3--------7--5--7--5--7--3--|
--------5-----------------------|--------5-----------------------|
--------------------------------|--------------------------------|
--3--------3--------3-----3-----|--3--------3--------3-----3-----|
--------------------------------|--------------------------------|


  E  E  E  E  E  E  E  E  E  E      E   E   E   E   E   E   E   E   E  E   
--------------------------------|--------------------------------------9--|
-----------------------------2--|--------------12-------------------------|
-----0-----4-----0-----0--------|--11--12--11------11--12--11--12--11-----|
--4-----4-----4-----4-----4-----|---9-----------9-----------9-------9-----|
--2--------2--------2-----2-----|-----------------------------------------|
--------------------------------|-----------------------------------------|


  E  E  E  E  E  E  E  E  E  E      E  E   E   E   E   E   E  E   E   E   
-----------------------------0--|--10--9--10--14--12--10--12--9--10------|
--3--2-----5--------3--2--3-----|---0----------0-----------0---------12--|
--------4-----7--6--------------|--------------------------------11------|
--------------------0-----------|----------------------------------------|
--2--------4--------------4-----|----------------------------------------|
--------------------------------|----------------------------------------|


    E  E  E  E  E  E  E  E  E  E     E  E  E  E  E  E  E  E  E  E   
|---------------------------------|--------------------------------|
|------------------------------2--|-----------------------------2--|
|*-----0-----4-----0-----0--------|-----0-----4-----0-----0--------|
|*--4-----4-----4-----4-----4-----|--4-----4-----4-----4-----4-----|
|---2--------2--------2-----2-----|--2--------2--------2-----2-----|
|---------------------------------|--------------------------------|


  E  E  E  E  E  E  E  E  E  E     E  E  E  E  E  E  E  E  E  E     
-----------------------------0--|-----------2---------------------||
--3--2-----5--------3--2--3-----|--3--2--3-----5--3--5--2--3------||
--------4-----7--6--------------|-----------------------------4--*||
--------------------0-----------|--------------------------------*||
--2--------4--------------4-----|--2--------2--------2------------||
--------------------------------|--------------------------2------||


  E  E  E  E  E  E  E  E  E  E     E  E  E  E  E  E  E  E  E  E   
--------------------------------|--------------------------------|
-----------------------------2--|--------------------------------|
-----0-----4-----0-----0--------|-----0-----4-----0-----0-----6--|
--4-----4-----4-----4-----4-----|--4-----4-----4-----4-----4-----|
--2--------2--------2-----2-----|--5--------5--------5-----5--4--|
--------------------------------|--------------------------------|


  E  E  E  E  E  E  E  E  E  E     E  E  E  E  E  E  E  E  E  E   
--------------------------------|-----------2--------------------|
--3--2-----5--3--2--3--2--3--5--|--3--2--3-----5--3--5--2--3-----|
--------4-----------------------|-----------------------------4--|
--------------------2-----0-----|--------------------------------|
--2--------2-----------------4--|--2--------2--------2-----------|
--------------------------------|--------------------------2-----|


  E  E  E  E  E  E  E  E  E  E     E  E  E  E  E  E  E  E  E  E   
--------------------------------|--------------------------2--3--|
--------3--------3--------0-----|--------2--------3--------0-----|
-----------------------4-----4--|-----------------------2-----2--|
-----5--------5-----2-----2-----|-----4--------4-----0-----0-----|
--------------------------------|--------------------------------|
--3--------3--------------------|--2--------2--------------------|


  E  E  E  E  E  E  E  E  E  E     E  E  E  E  E  E  E  E  E  E   
--5-----3--------2--0-----------|--------------------------------|
--------3--------3--------0-----|--------2--------3--3-----2-----|
-----------------------4-----4--|-----------------------2-----2--|
-----5--------5-----2-----2-----|-----4--------4-----0-----0-----|
--------------------------------|--------------------------------|
--3--------3--------------------|--2--------2--------------------|

Optional section. Play or skip to measure 59.
   ^      ^   v      v   ^   v   ^   v     ^     ^  v     v  ^  v  ^  v   
   E  E   E   E  E   E   E   E   E   E     E  E  E  E  E  E  E  E  E  E   
---0------0---0------0---0---0---0---0--|--0-----0--0-----0--0--0--0--0--|
---0------0---0------0---0---0---0---0--|--0-----0--0-----0--0--0--0--0--|
--11-----11--11-----11--11--11--11--11--|--6-----6--6-----6--6--6--6--6--|
---9------9---9------9---9---9---9---9--|--5-----5--5-----5--5--5--5--5--|
----------------------------------------|--------------------------------|
---7------7---7------7---7---7---7---7--|--3-----3--3-----3--3--3--3--3--|


  ^     ^  v     v  ^  v  ^  v     ^     ^  v     v  ^  v  ^  v   
  E  E  E  E  E  E  E  E  E  E     E  E  E  E  E  E  E  E  E  E   
--0-----0--0-----0--0--0--0--0--|--0-----0--0-----0--0--0--0--0--|
--0-----0--0-----0--0--0--0--0--|--0-----0--0-----0--0--0--0--0--|
--0-----0--0-----0--0--0--0--0--|--3-----3--3-----3--3--3--3--3--|
--4-----4--4-----4--4--4--4--4--|--4-----4--4-----4--4--4--4--4--|
--2-----2--2-----2--2--2--2--2--|--4-----4--4-----4--4--4--4--4--|
--0-----0--0-----0--0--0--0--0--|--2-----2--2-----2--2--2--2--2--|


   ^      ^   v      v   ^   v   ^   v     ^     ^  v     v  ^  v  ^  v   
   E  E   E   E  E   E   E   E   E   E     E  E  E  E  E  E  E  E  E  E   
---0------0---0------0---0---0---0---0--|--0-----0--0-----0--0--0--0--0--|
---0------0---0------0---0---0---0---0--|--0-----0--0-----0--0--0--0--0--|
--11-----11--11-----11--11--11--11--11--|--6-----6--6-----6--6--6--6--6--|
---9------9---9------9---9---9---9---9--|--5-----5--5-----5--5--5--5--5--|
----------------------------------------|--------------------------------|
---7------7---7------7---7---7---7---7--|--3-----3--3-----3--3--3--3--3--|


  ^     ^  v     v  ^  v  ^  v     ^     ^  v     v  ^  v  ^  v   
  E  E  E  E  E  E  E  E  E  E     E  E  E  E  E  E  E  E  E  E   
--0-----0--0-----0--0--0--0--0--|--0-----0--0-----0--0--0--0--0--|
--0-----0--0-----0--0--0--0--0--|--0-----0--0-----0--0--0--0--0--|
--0-----0--0-----0--0--0--0--0--|--4-----4--4-----4--4--4--4--4--|
--4-----4--4-----4--4--4--4--4--|--4-----4--4-----4--4--4--4--4--|
--2-----2--2-----2--2--2--2--2--|--4-----4--4-----4--4--4--4--4--|
--0-----0--0-----0--0--0--0--0--|--2-----2--2-----2--2--2--2--2--|


  ^  v  ^     v  ^     v  ^     End of optional section.                             
  E  E  E  E  E  E  E  E  Q       Q    Q    Q    Q    Q     
--0--0--0-----0--0-----0--2----|---------------------------|
--0--0--0-----0--0-----0--2----|---------------------------|
--4--4--3-----3--3-----3--3----|---------------------------|
--4--4--4-----4--4-----4--4----|---------------------------|
--4--4--4-----4--4-----4--4----|---------------------------|
--2--2--2-----2--2-----2--2----|---------------------------|


  E  E  E  E  E  E  E  E  E  E     E  E  E  E  E  E  E  E  E  E   
--------------------------------|--------------------------------|
-----------------------------2--|-----------------------------2--|
-----0-----4-----0-----0--------|-----0-----4-----0-----0--------|
--4-----4-----4-----4-----4-----|--4-----4-----4-----4-----4-----|
--2-----------------------------|--2-----------------------------|
--------------------------------|--------------------------------|


                                     NH   NH   NH   NH   NH   NH   NH   NH   NH   NH   
  E  E  E  E  E  E  E  E  E  E       E    E    E    E    E    E    E    E    E    E    
--------------------------------|----------------------------------------------------||
-----------------------------2--|--<>7-------<>7-------<>7-------<>7-------<>7-------||
-----0-----4-----0-----0--------|-------<>5-------<>9-------<>5-------<>5------------||
--4-----4-----4-----4-----4-----|----------------------------------------------------||
--2-----------------------------|-----------------------------------------------<>9--||
--------------------------------|----------------------------------------------------||




Duration Legend
---------------
W - whole
H - half
Q - quarter
E - 8th
S - 16th
T - 32nd
X - 64th
. - note dotted
|-n-|  - n-tuplets


Tablature Legend
----------------
NH - natural harmonic
^ - brush up
v - brush down
Login or Register to remove this ad.

4 comments on Hollow Bastion

I like this arrangement.

5

I like this arrangement.

Amazing! Kingdom Hearts is

5

Amazing! Kingdom Hearts is one of my favourite games ever made.

I requested this a long time

I requested this a long time ago. Cant believe someone actually did it. Thanks! Great job!

That optional part rocks so

That optional part rocks so hard. God damn.