Fragments of Sorrow (Kingdom Hearts) Guitar Tab

Submitted: Dec 13, 2011 by Omnicide (Last updated: Dec 16, 2011)

5
Average: 5 (9 votes)
Download | Listen
Game: Kingdom Hearts
Composer(s): Yoko Shimomura
Style: Arrangement, Fingerstyle
Series: Kingdom Hearts

AutoScroll: Slow | Medium | Fast
Fragments Of Sorrow
Kingdom Hearts
Composed by Yoko Shimomura
Arranged by William Geesdorf


Drop D Tuning


     ^                                                     ^                        
     E  E  E  E  E  E  E  E     E  E  E  E  E  E  E  E     E  E  E  E  E  E  E  E   
E||--5-----------------------|--------------------------|--3-----------------------|
B||--6-----------------------|--------------------------|--5-----------------------|
G||--7-----------------------|--------------------------|--5-----------------------|
D||--0-----0-----0-----0-----|--0-----0-----0-----0-----|--0-----0-----0-----0-----|
A||--0--------------------0--|-----------------------0--|--0--------------------0--|
D||--0-----------------------|--------------------------|--0-----------------------|


  E  E  E  E  E  E  E  E      E  E  E  E  E  E  E   E      E   E   E  E  E   E   E   E   
--------------------------|--10---------------------8--|---7---8--10---------8---7---8--|
--------------------------|--10--------------------10--|--10--10--10--------10--10--10--|
--------------------------|----------------------------|--------------------------------|
--0-----0-----0-----0-----|---0-----0-----0-----0------|---0-------0-----0-------0------|
-----------------------0--|-------------------------0--|-----------------------------0--|
--------------------------|----------------------------|--------------------------------|


  E  E  E  E  E  E  E  E     E  E  E  E  E  E  E  E     E  E  S  S E  E  E  E  E   
--5--7--8-----------------|-----------------7--5--7--|--5-------------------------|
--8--8--8-----------------|-----------------8--8--8--|--3-------------------------|
--------------------------|--------------------------|-------------0--------------|
--0-----0-----0-----0-----|--0-----0-----0-----0-----|--0--0--2h-3----0-----0-----|
-----------------------0--|-----------------------0--|-------------------------0--|
--------------------------|--------------------------|----------------------------|


  E  E  E  E  E  E  E  E     E  E  S  S E  E  E  E  E     E  E  E  E  E  E  E  E   
-----3-----5--1-----------|--0-------------------------|--------------5-----8-----|
-----3-----3--3-----------|--1-------------------------|--6-----8-----5-----8-----|
--------------------------|-------------0--------------|--5-----7-----------------|
--0-----0-----0-----0-----|--0--0--2h-3----0-----0-----|--0-----0-----0-----0-----|
-----------------------0--|-------------------------0--|-----------------------0--|
--------------------------|----------------------------|--------------------------|


   E  E  E  E  E  E  E   E      E   E   E  E  E   E   E   E     E  E  E  E  E  E  E  E   
--10---------------------8--|---7---8--10--------12--10---8--|--5--7--8-----------------|
--10--------------------10--|--10--10--10--------10--10--10--|--8--8--8-----------------|
----------------------------|--------------------------------|--------------------------|
---0-----0-----0-----0------|---0-------0-----0-------0------|--0-----0-----0-----0-----|
-------------------------0--|-----------------------------0--|-----------------------0--|
----------------------------|--------------------------------|--------------------------|


  E  E  E  E  E  E  E  E     E  E  S  S E  E  E  S  S E     E  E  E  E  E  E  E  E   
-----------------7--5--7--|--5---------------------------|-----3-----5--1-----------|
-----------------8--8--8--|--3---------------------------|-----3-----3--3-----------|
--------------------------|-------------0-------------0--|--------------------------|
--0-----0-----0-----0-----|--0--0--2h-3----0--0--2h-3----|--0-----0-----0-----0-----|
-----------------------0--|---------------------------0--|-----------------------0--|
--------------------------|------------------------------|--------------------------|


  E  E  S  S E  E  E  S  S E     E  E  S  S E  E  E  S  S E     E  E  E  E  E  E  E  E   
--0---------------------------|---------------------------3--|-----5-----6--3-----------|
--1---------------------------|----------------3--3--5h-6----|-----3-----3--3-----------|
------------------------------|-------------0----------------|--------------------------|
------------------------------|--0--0--2h-3------------------|--0-----0-----0-----0-----|
------------------------------|------------------------------|-----------------------0--|
--0--0--2h-3-5--0--0--2h-3-5--|--0--0--0----0--0--0--0----0--|--------------------------|


  E  E  E  E  E  E  E  E     E  E  E  E  E  E  E  E     E  E  E  E  E  E  E  E   
-----3-----5--1-----------|--------------------------|--------------------------|
-----3-----3--3-----------|-----6-----8--5-----6-----|--3-----5-----------------|
--------------------------|-----5-----5--5-----5-----|--5-----5-----2-----5-----|
--0-----0-----0-----0-----|--0-----0-----0-----0-----|--0-----0-----2-----5-----|
-----------------------0--|-----------------------0--|-----------------------0--|
--------------------------|--------------------------|--------------------------|


  E  E  E  E  E  E  E  E     E  E  E  E  E  E  E  E     E  E  E  E  E  E  E  E   
-----5-----6--3-----------|-----3-----5--1-----------|--------------------------|
--3--3-----3--3-----------|-----3-----3--3-----------|-----6-----8--5-----6-----|
--2-----------------------|--------------------------|-----5-----5--5-----5-----|
--0-----0-----0-----0-----|--0-----0-----0-----0-----|--0-----0-----0-----0-----|
-----------------------0--|-----------------------0--|-----------------------0--|
--------------------------|--------------------------|--------------------------|


  E  E  E  E  E  E  E  E     E   E  E   E   E  E  E   E     E   E  E   E   E  E  E   E   
--------------------5-----|------8------9----------------|-------------8----------------|
--3-----5-----6-----------|----------------11------------|-----11----------9------------|
--5-----5-----5-----5-----|-----10-----10--10------------|-----10-----10--10------------|
--0-----0-----0-----0-----|------------------------------|------------------------------|
-----------------------0--|--8------8-------8-----8------|--8------8-------8-----8------|
--------------------------|--------------------------10--|--------------------------10--|


  E  E  E   E  E  E  E   E      E  E  E  E   E  E   E   E   
----------------------------|------------------------------|
-----9-----11--8-----9------|---------8------------11------|
-----8------8--8-----8------|--10-----8------------12------|
----------------------------|--13-----------10-------------|
--8-----8------8-----8------|---8-----8-----11-------------|
------------------------10--|--------------------------10--|


  E   E  E   E   E  E  E   E     E   E  E   E   E  E  E   E   
------8------9----------------|-------------8----------------|
----------------11------------|-----11----------9------------|
-----10-----10--10------------|-----10-----10--10------------|
------------------------------|------------------------------|
--8------8-------8-----8------|--8------8-------8-----8------|
--------------------------10--|--------------------------10--|


                                                                 ^                     
  E  E  E   E  E  E  E   E      E  E  E  E  E  E  E   E     S  S E  E  E  E  E  E  E   
----------------------------|---------------------8------|-------5--------------------|
-----9-----11--8-----9------|---------8-----9------------|--6p-5-6--------------------|
-----8------8--8-----8------|--10-----8-----8-----8------|-------7--------------------|
----------------------------|--13------------------------|-------0--0-----0-----0-----|
--8-----8------8-----8------|---8-----8-----8-----8------|-------0-----------------0--|
------------------------10--|------------------------10--|-------0--------------------|


                             ^                                                     
  E  E  E  E  E  E  E  E     E  E  E  E  E  E  E  E     E  E  E  E  E  E  E  E     
--------------------------|--3-----------------------|---------------------------||
--------------------------|--5-----------------------|---------------------------||
--------------------------|--5-----------------------|--------------------------*||
--0-----0-----0-----0-----|--0-----0-----0-----0-----|--0-----0-----0-----0-----*||
-----------------------0--|--0--------------------0--|-----------------------0---||
--------------------------|--0-----------------------|---------------------------||


  ^                                                     ^                        
  E  E  E  E  E  E  E  E     E  E  E  E  E  E  E  E     E  E  E  E  E  E  E  E   
--5-----------------------|--------------------------|--3-----------------------|
--6-----------------------|--------------------------|--5-----------------------|
--7-----------------------|--------------------------|--5-----------------------|
--0-----0-----0-----0-----|--0-----0-----0-----0-----|--0-----0-----0-----0-----|
--0--------------------0--|-----------------------0--|--0--------------------0--|
--0-----------------------|--------------------------|--0-----------------------|


                             ^           ^          
  E  E  E  E  E  E  E  E     E  E  E  E  H          
--------------------------|-----------------------||
--------------------------|--3--------------------||
--------------------------|--2--2-----------------||
--0-----0-----0-----0-----|--0-----3--2--0--------||
-----------------------0--|--0-----------0--------||
--------------------------|--0-----------0--------||




Duration Legend
---------------
W - whole
H - half
Q - quarter
E - 8th
S - 16th
T - 32nd
X - 64th
. - note dotted
|-n-|  - n-tuplets


Tablature Legend
----------------
h - hammer on
p - pull off
^ - brush up
Login or Register to remove this ad.

4 comments on Fragments of Sorrow

cheers!

5

awesome tab omnicide!

awesome song, awesome game; good choice, good job

cheers!

this is awesome

5

this is awesome

has someone told you already

5

has someone told you already that this is awesome ? it is!

I'm glad

I'm glad you enjoyed it!