Destiny Islands (Kingdom Hearts) Guitar Tab

Submitted: Aug 18, 2011 by Ranulf

3.75
Average: 3.8 (4 votes)
Download | Listen
Game: Kingdom Hearts
Composer(s): Yoko Shimomura
Style: Transcription
Series: Kingdom Hearts

AutoScroll: Slow | Medium | Fast
Destiny Islands
Kingdom Hearts
Playstation 2
Tabbed by John Adams
Composed by Yoko Shimomura
8/17/2011


e||---------------------------------------------------------------------|
B||---10h12--13---------------------------------------------------------|
G||*------------12--10--------10----------------------------------------|
D||*--------------------14--------14--10--12---14---10-------10---------|
A||-----------------------------------------------------14-------12--10-|
E||---------------------------------------------------------------------|

-----------------------------------------------------------------------|
--10h12--13-15--13--12----13-------------------------------------------|
------------------------------12--10-----10---------------12-----------|
--------------------------------------14----14--10---12--------12---14-|
-----------------------------------------------------------------------|
-----------------------------------------------------------------------|

-----------------------------------------------------------|
------------------13-12-13--15--12--10h12p10---------------|
--12---10------10-----------------------------12---11---12-|
-----------14----------------------------------------------|
-----------------------------------------------------------|
-----------------------------------------------------------|

--------------------------------------------------------|
--13--12-13-12-13--15--12-------------------------------|
---------------------------14--12--12-14-12-10----10----|
-----------------------------------------------14----14-|
--------------------------------------------------------|
--------------------------------------------------------|

------------------------------------------------|
--12--13--12-----13-12-13-15--12----------------|
--------------14------------------12h14--12--11-|
------------------------------------------------|
------------------------------------------------|
------------------------------------------------|

--------------------------------------------------------------------------------||
-----13-12-13-15--13--12--11-10-------------------------------------------------||
--12-----------------------------11--12--13-14--10--12--10-12-10---------------*||
------------------------------------------------------------------14--14-13-12-*||
--------------------------------------------------------------------------------||
--------------------------------------------------------------------------------||
Login or Register to remove this ad.

1 comment on Destiny Islands

Great tab!

5

How come this hasn't had any votes or comments? This is awesome! Easy to play too!