Login or Register to remove this ad.

Dearly Beloved (Kingdom Hearts) Guitar Tab

Submitted: Jun 21, 2012 by Superxwolf

4.5
Average: 4.5 (2 votes)
Download | Listen
Game: Kingdom Hearts
Composer(s): Yoko Shimomura
Style: Arrangement, Fingerstyle
Series: Kingdom Hearts

AutoScroll: Slow | Medium | Fast
Title: Dearly Beloved
Artist: Yoko Shimura
Album: Kingdom Hearts Piano Collection
Tabber: Superxwolf
Tempo = 60
Nylon Guitar

Legend
L - tied note
x - dead note
h - hammer on/pull off
b - bend
s - slide
~ - vibrato
g - ghost note
> - accentuated note
t - trill
M - palm mute
. - staccato
P - popping (bass)
S - slapping (bass)
+ - tapping
W - wide vibrato
< - fade in
w - whammy bar
= - tremolo picking
v - brush up
^ - brush down
V - pick stroke up
n - pick stroke down


E |----------|-----15---------|--8-------------|
B |--13------|--13------------|----------------|
G |-----1----|-----12-10-7----|--5--0----------|
D |--10-1----|----------------|--------3--0----|
A |----------|----------------|----------------|
D |----------|----------------|----------------|


--------------------4--6--8-------------------------|
--------------1--4----------------------------------|
--1-----1--3----------------------------------------|
-----1----------------------------------------------|
----------------------------------------------------|
----------------------------------------------------|


----------------------------|-------||-8-----------------10------|
-----------------3--1L------|--1----||-------8-----6-------------|
----------------------------|-------||o------------8-------------|
-----0--------1-------------|-------||o------8--6----------------|
--------3-------------------|-------||----6----------------------|
--1-------------------------|-------||-6-------------------------|


--8-----------------10------|--11----10----15----13------|
--------8-----6-------------|----------------------------|
--------------7-------------|--------10----12------------|
--------10-8----------------|-----------13---------------|
-----8----------------------|-----13---------------------|
--8-------------------------|--13------------------------|


--11----10----8-----6------||
--------------8------------||
--------10----------------o||
-----------13-------------o||
-----13--------------------||
--13-----------------------||


--11----------------------10----------------------8-----------------------6-----
--------------------------------------------------8-----------------------------
--------------------------10----------------------------------------------------
--------------------------------------13----------------------------------------
--------------13----------------------------------------------------------------
--13----------------------------------------------------------------------------


--------------------|--8-----------------10------|--8-----15----------11------|
--------------------|--9-----------------11-11---|--9-----13------------------|
--------------------|--8-----------8-----10-10---|--10----------7-------------|
---------5--6--8----|--------8--6----------------|--------10-8--------13------|
---6--8-------------|-----6----------------------|-----8----------------------|
--------------------|--6-------------------------|--8-------------------------|


--15------------------------|--15-13-15------------------|
--16----------8-----9--11---|--------------8-------------|
--------10----------10-12---|----------------------------|
-----------13---------------|--13----15-13---------------|
-----13---------------------|-----13-------------6-------|
--13------------------------|--13------------------------|


--8-----------------10------|--8-----15----------13------|
--9-----------------11-11---|--9-----13----------11------|
--8-----------8-----10-10---|--10----------7-------------|
--------8--6----------------|--------10-8----------------|
-----6----------------------|-----8----------------------|
--6-------------------------|--8-------------------------|


--11----10------------------|----------------------------|--6----||
--11----11-13-8-------------|--------------8-------------|--8----||
--------10-12---------------|--------10------------------|--8----||
-----------13---------------|-----------13---------------|--8----||
-----13---------------------|-----13-------------6-------|--6----||
--13------------------------|--13------------------------|--6----||

Login or Register to remove this ad.