Ventus' Theme (Kingdom Hearts Birth by Sleep) Guitar Tab

Submitted: Dec 29, 2016 by chimatte (Last updated: Jan 30, 2017)

5
Average: 5 (1 vote)
Download | Listen
Game: Kingdom Hearts Birth by Sleep
Composer(s): Yoko Shimomura, Takeharu Ishimoto, Tsuyoshi Sekito
Style: Arrangement, Fingerstyle
Series: Kingdom Hearts

Click here for a video example.

AutoScroll: Slow | Medium | Fast
VENTU'S THEME                                                                 
Kingdom Hearts Birth By Sleep
Dropped D Tuning
Capo 2



      E  E  E  E  E  E  E  E     E  E  E  E  E  E  E  E     E  E  E  S  S E  E  E  E     E  E  E  E  E  E  E  E   
E||------------2--0-----0--5--|--7-----0--9--7-----0-----|----------------2-----------|--------0--9--7-----0-----|
B||---3-----------------------|-----7-----------7-----2--|--3--------3h-5----3--------|--0--7-----------7-----2--|
G||*--------4-----------2-----|--------------------------|--------4-------------4--2--|--------------------------|
D||*-----4-----------2--------|--------------------------|-----4----------------------|--------------------------|
A||---2-----------0-----------|--------------------------|--2-------------------------|--------------------------|
D||---------------------------|--5-----------------------|----------------------------|--5-----------------------|


                                                                                   |--3--|        |--3--|  |--3--|   
  E  E  E  E  E  E  E  E     E  E  E  E  E  E  E  E     E  E  E  E  E  E  E  E     E  E  E  E  E  E  E  E  E  E  E   
--------------------------|--------------------------|--------------------------|--------------------------0--------|
--3--------3--2--------2--|--3--0--2--3--3--0--------|-----------0--------3-----|-----0--2--3--------2--3--2--3--2--|
-----------4-----2--2--2--|--------0-----2-----2--0--|--0--0--2--0--2-----2-----|-----0--2--4--------2--4--2--4--2--|
-----4--4-----------2-----|-----0--------4-----0-----|-----0-----------0-----4--|-----------2-----------------------|
--2-----5-----0--4--------|-----------------0-----0--|--------2-----------------|--------------2--------------------|
--------------------------|--5-----------0-----------|--5-----------4-----------|--2--------------4-----------------|


  E  E  E  E  E  E  S S S S    E  E  E  E  E  E  E  E     E  E  E  E  E  E  E  E     E  E  E  S  S E  E  E  E   
-----2--0--2----------------|-----------2--0-----0--5--|--7-----0--9--7-----0-----|----------------2-----------|
--0-----------4---------0-2-|--3-----------------------|-----7-----------7-----2--|--3--------3h-5----3--------|
----------------------------|--------4-----------2-----|--------------------------|--------4-------------4--2--|
--2-----2--4----------4-----|-----4-----------2--------|--------------------------|-----4-------------2--------|
--2--2--------2-----2---4---|--2-----------0-----------|--------------------------|--2-------------0-----0-----|
-----------------4--0-------|--------------------------|--5-----------------------|----------------------------|


                      |--3--|                                |--3--|                       |--3--|                     
  E  S S E  E  E  S S E  E  E     E  E  E  E  E  E  E  E     E  E  E  E  E  E  E  E  E     E  E  E  E  E  E  E  E  E   
----------------------------0--|--5-----------------5--0--|-----0-----------------3-----|-----------5-----------3--1--|
--0--0-2-3--------2-3-2--3--2--|--------------------------|--3-----3-----------------3--|--2--3--5--------------------|
----------------------2--4-----|--0--------------2--------|-----------0-----3--0--------|--2--4--6-----6--------0--2--|
-----4---2---------------------|--------2-----------------|--------------0--------0-----|-----------7--------0--------|
------------4--2------0--------|-----4-----4--0-----------|-----------1--------------2--|--0--------------------------|
--5---------------4------------|--------------------------|--5--------------------------|-----------------5-----------|


  E  E  E  E  E  E  E  S S    E  E  E  E  E  E  E  E     E  E  E  E  E  E  E  S S      W                  
-----------0---------------|--------------------0-----|--0-----------------2--0----||-------------------||
--------------3--------1-0-|-----2-----------2-----2--|-----2-----2-----2-----0-2--||--3----------------||
--------2--2--------0--2---|--2-----2-----2-----------|--------3-----3------------*||--4----------------||
--------3--------0---------|-----------2--------------|---------------------------*||--4----------------||
-----3---------------------|--0-----------0-----------|--1-----------1-------------||--2----------------||
--3-----------5------------|--------------------------|----------------------------||-------------------||




Duration Legend
---------------
W - whole
H - half
Q - quarter
E - 8th
S - 16th
. - note dotted
|-n-|  - n-tuplets



Login or Register to remove this ad.