Ads

Eternal Moments (Kingdom Hearts Birth by Sleep) Guitar Tab

Submitted: Apr 08, 2012 by tipierre51

5
Average: 5 (1 vote)
Download | Listen
Game: Kingdom Hearts Birth by Sleep
Composer(s): Yoko Shimomura, Takeharu Ishimoto, Tsuyoshi Sekito
Style: Arrangement, Fingerstyle
Series: Kingdom Hearts

AutoScroll: Slow | Medium | Fast
Eternal Moments
Kingdom Hearts

Standard Tuning


     E  E  E  E  E  E  E  E     E  E  E  E  E  E  E  E   
E||-----------------0--8--7--|--5--L--------------5--3--|
B||-----------1-----1--------|-----------------1--------|
G||--------0-----0-----0--5--|-----------2-----2-----2--|
D||-----2--------------------|--------2-----2-----2-----|
A||--3-----------------------|-----3--------------------|
E||--------------------------|--5-----------------------|


                                         ^            
  E  E  E  E  E  E  E  E     E  E  E  E  E  E  E  E   
--1--L--------------1--L--|--------------7--L--L--L--|
-----------------1--------|--3--L--------8--L--L--L--|
--------------------------|-----------0--7--L--L--L--|
-----------3-----3-----3--|--------0-----0--L--L-----|
--------3-----3-----3-----|-----2--------------------|
--1--5--------------------|--3-----------------------|


    E  E  E  E  E  E  E  S  S    E  E  E  S S E  E  E  E   
|------------0--0--L----------|-----------0------------0--|
|---3--L-----------------3h-5-|--3--L-------3-1--------1--|
|*--------0--------0-----0--L-|--------2------------2-----|
|*-----2-----2--------2-------|-----2-----2-L----2--------|
|---3-----------3--L----------|--0--L---------0-----------|
|-----------------------------|---------------------------|


  E  E  E  E  E  E  E  S  S    E  E  E  S S E  E  E  E   
--0--L-----1--1--L-----0h-1-|--3--L-----1-0-------------|
----------------------------|---------------3--L--------|
-----------------2-----2----|------------------0-----0--|
--------3-----------3-------|--------0------------0-----|
-----3-----3----------------|-----2-----2-L-------------|
--1-----------1-------------|--3------------3-----------|


  E  E  E  E  E  E  E  E     E  E  E  E  E  E  E  E   
-----------0--0--L--------|-----------0--1--L--3--L--|
--3--L--------------------|--3--L--------------------|
--------0--------0--------|--------2--------2-----2--|
-----2-----2--------2-----|-----2-----2--------2-----|
--3-----------3--------3--|--0-----------0-----------|
--------------------------|--------------------------|


  E  E  E  E  E  E  E  S S    E  E  E  S S E  E  E  E   
--1--L-----1--1--L-----0---|---------------------------|
-------------------------3-|-----------0-1-3--L--------|
--------2------------------|--0--L------------0-----0--|
-----3-----3-----3-----3-L-|--------0------------0-----|
--------------------3------|-----2-----2-L-------------|
--1-----------1------------|--3------------3-----------|


  E  E  E  E  E  E  E  S S    E  E  E  E  E  E  E  E   
-----------0--0--L-----0-1-|--3--L-----5--6--L--5--3--|
--3--L---------------------|--------------------------|
--------0--------0---------|--------2--------2-----2--|
-----2-----2--------2------|-----2-----2--------2-----|
--3-----------3--------3-L-|--0-----------0-----------|
---------------------------|--------------------------|


  E  E  E  E  E  E  E  S S    E  E  E  E  E  E  E  E   
--5--L-----1--1--L-------0-|--1--L--3--L--0--L--------|
-----------------------3---|--------------------3--L--|
-----------2---------------|--------2--------0-----0--|
--------3-----3-----3------|-----3--------------0-----|
-----3-----------3-----3---|--0-----------------------|
--1------------------------|--------------------------|


  E  E  E  E  E  E  E  E     E  E  E  E  E  E  E  E   
-----------0--0--L--------|--0--L--------------------|
--3--L--------------------|--------------------------|
--------0--------0--------|--------2--------2--------|
-----2-----2--------2-----|-----2-----2--------2-----|
--3-----------3--------3--|--0-----------0--------0--|
--------------------------|--------------------------|


  E  E  E  E  E  E  E  E     E  E  E  E  E  E  E  E   
-----------------1--0--1--|--3-----------------------|
--------------------------|--------------------------|
-----------------2--------|-----------0-----0--------|
--------3-----3-----3-----|--------0-----0-----0-----|
-----3-----3-----------3--|-----2-----------------2--|
--1-----------------------|--3-----------------------|


  E  E  E  E  E  E  E  S S    E  E  E  E  E  E  E  E   
--1--L---------------------|--1--L-----3--4--L--3--L--|
-----------4--4--L-----3-4-|--------------------------|
-----3-----3---------------|-----3-----3--------------|
--------3-----3------------|--------3-----------------|
--1--------------1---------|--1-----------1-----------|
---------------------------|--------------------------|


  E  E  E  E  E  E  E  E     E  E  E  E  E  E  E  E   
--3--L-----3--------4--L--|--3--L-----3--------3-----|
-----4--------4--------4--|-----4--------4--------4--|
--------3--------3--------|--------3--------3--------|
--1-----------------------|--1-----------------------|
--------------------------|--------------------------|
--------------------------|--------------------------|


  E  E  E  E  E  E  E  S S    E  E  E  E  E  E  E  E   
--1--L---------------------|--1--L--------------1--L--|
-----3-----3--3--L-----3-4-|-----------4--3--L--------|
--------3--3---------------|-----------3--------------|
-----0--3-----------3--0---|-----0--3-----------1--0--|
--1------------------------|--1-----------------------|
---------------------------|--------------------------|


  E  E  E  E  E  E  E  E     E  E  E  E  E  E  E  E   
--3--L-----3--------3-----|--3--------3--------3-----|
-----4--------4--------4--|-----4--------4--------4--|
--------5--------5--------|--------5--------5--------|
--------------------------|--------------------------|
--3-----------------------|--3-----------------------|
--------------------------|--------------------------|


  E  E  E  E  E  E  E  E     E  E  E  E  E  E  E  E   
--------------------------|-----------3--L--L--1--0--|
--3--L--------------1--0--|--1--L--L-----------------|
-----------0--------------|--------0--------0--------|
--------0-----0--L--------|-----2-----2--------2-----|
-----2--------------------|--3-----------3--------3--|
--3-----------------------|--------------------------|


  E  E  E  E  E  E  E  E     E  E  E  E  E  E  E  E   
--------------------------|--0--L--L--L--L--1--0--1--|
--1--L--L--L--L--L--1--3--|--------------------------|
--------2--------2--------|--------------------------|
-----2-----2--------2-----|--------3--------3-----3--|
--0-----------0--------0--|-----3-----3--------3-----|
--------------------------|--1-----------1-----------|


  E  E  E  E  E  E  E  E   3x       
--3--L--L--L---------------||-----||
--------------3--L--L--L---||-----||
-----------0-----0--------*||-----||
--------0-----0-----0-----*||-----||
-----2-----------------2---||-----||
--3------------------------||-----||
Login or Register to remove this ad.